ISO-10303-21;
HEADER;
FILE_DESCRIPTION (( 'STEP AP214' ),
    '1' );
FILE_NAME ('00830 Stick Tip Round Tube Rubber Black 25mm.STEP',
    '2025-08-04T22:50:31',
    ( '' ),
    ( '' ),
    'SwSTEP 2.0',
    'SolidWorks 2025',
    '' );
FILE_SCHEMA (( 'AUTOMOTIVE_DESIGN' ));
ENDSEC;

DATA;
#1 = APPLICATION_CONTEXT ( 'automotive_design' ) ;
#2 = VERTEX_POINT ( 'NONE', #208 ) ;
#3 = ORIENTED_EDGE ( 'NONE', *, *, #116, .T. ) ;
#4 = ORIENTED_EDGE ( 'NONE', *, *, #140, .F. ) ;
#5 = AXIS2_PLACEMENT_3D ( 'NONE', #175, #245, #31 ) ;
#6 = ORIENTED_EDGE ( 'NONE', *, *, #213, .T. ) ;
#7 = ORIENTED_EDGE ( 'NONE', *, *, #66, .F. ) ;
#8 = CARTESIAN_POINT ( 'NONE',  ( 18.00000000000000355, 12.00000000000000355, 0.000000000000000000 ) ) ;
#9 = CARTESIAN_POINT ( 'NONE',  ( -17.75768782769468146, -0.1974548565359252328, -35.51537565538936292 ) ) ;
#10 = DIRECTION ( 'NONE',  ( -0.000000000000000000, 1.000000000000000000, -0.000000000000000000 ) ) ;
#11 = SURFACE_SIDE_STYLE ('',( #160 ) ) ;
#12 =( NAMED_UNIT ( * ) SI_UNIT ( $, .STERADIAN. ) SOLID_ANGLE_UNIT ( ) );
#13 = CARTESIAN_POINT ( 'NONE',  ( -16.89742728267467697, 3.684815421174893579, -2.069338023555270452E-15 ) ) ;
#14 = CONICAL_SURFACE ( 'NONE', #177, 18.00000000000000355, 0.1302114429643963789 ) ;
#15 = EDGE_CURVE ( 'NONE', #2, #76, #181, .T. ) ;
#16 = UNCERTAINTY_MEASURE_WITH_UNIT (LENGTH_MEASURE( 1.000000000000000082E-05 ), #211, 'distance_accuracy_value', 'NONE');
#17 = DIRECTION ( 'NONE',  ( -0.000000000000000000, 1.000000000000000000, -0.000000000000000000 ) ) ;
#18 = CARTESIAN_POINT ( 'NONE',  ( 0.000000000000000000, 12.00000000000000355, 12.50000000000000000 ) ) ;
#19 = DIRECTION ( 'NONE',  ( -0.000000000000000000, 1.000000000000000000, -0.000000000000000000 ) ) ;
#20 = CARTESIAN_POINT ( 'NONE',  ( 1.867586368699714165E-15, 33.00000000000000000, -15.25000000000000355 ) ) ;
#21 = ORIENTED_EDGE ( 'NONE', *, *, #317, .T. ) ;
#22 = EDGE_LOOP ( 'NONE', ( #178, #281, #7, #106 ) ) ;
#23 = ORIENTED_EDGE ( 'NONE', *, *, #80, .T. ) ;
#24 = AXIS2_PLACEMENT_3D ( 'NONE', #84, #147, #306 ) ;
#25 = ORIENTED_EDGE ( 'NONE', *, *, #26, .F. ) ;
#26 = EDGE_CURVE ( 'NONE', #209, #83, #162, .T. ) ;
#27 = ORIENTED_EDGE ( 'NONE', *, *, #241, .T. ) ;
#28 = DIRECTION ( 'NONE',  ( -0.000000000000000000, 1.000000000000000000, -0.000000000000000000 ) ) ;
#29 = AXIS2_PLACEMENT_3D ( 'NONE', #35, #263, #93 ) ;
#30 = DIRECTION ( 'NONE',  ( 1.590127922300852170E-17, -0.9915344613221521719, 0.1298437985064723466 ) ) ;
#31 = DIRECTION ( 'NONE',  ( 0.000000000000000000, 0.000000000000000000, 1.000000000000000000 ) ) ;
#32 = CARTESIAN_POINT ( 'NONE',  ( 0.000000000000000000, 12.00000000000000355, -18.00000000000000355 ) ) ;
#33 = CIRCLE ( 'NONE', #318, 15.25000000000000000 ) ;
#34 = DIRECTION ( 'NONE',  ( 0.000000000000000000, 0.000000000000000000, 1.000000000000000000 ) ) ;
#35 = CARTESIAN_POINT ( 'NONE',  ( 0.000000000000000000, 12.00000000000000355, 0.000000000000000000 ) ) ;
#36 = CIRCLE ( 'NONE', #291, 12.50000000000000000 ) ;
#37 = CARTESIAN_POINT ( 'NONE',  ( -17.75768782769468501, -0.1974548565359252328, -2.174689555844421092E-15 ) ) ;
#38 = CARTESIAN_POINT ( 'NONE',  ( 17.75768782769468501, -0.1974548565359252328, 0.000000000000000000 ) ) ;
#39 = CIRCLE ( 'NONE', #196, 18.00000000000000355 ) ;
#40 = FACE_OUTER_BOUND ( 'NONE', #311, .T. ) ;
#41 = AXIS2_PLACEMENT_3D ( 'NONE', #112, #260, #91 ) ;
#42 = FACE_OUTER_BOUND ( 'NONE', #50, .T. ) ;
#43 = AXIS2_PLACEMENT_3D ( 'NONE', #77, #202, #48 ) ;
#44 = ADVANCED_FACE ( 'NONE', ( #288 ), #87, .T. ) ;
#45 = DIRECTION ( 'NONE',  ( 0.000000000000000000, 0.000000000000000000, 1.000000000000000000 ) ) ;
#46 = VECTOR ( 'NONE', #71, 1000.000000000000000 ) ;
#47 = CARTESIAN_POINT ( 'NONE',  ( 17.99999999999999289, 12.00000000000000533, 36.00000000000000711 ) ) ;
#48 = DIRECTION ( 'NONE',  ( 0.000000000000000000, 0.000000000000000000, 1.000000000000000000 ) ) ;
#49 = CARTESIAN_POINT ( 'NONE',  ( -18.00000000000000711, 12.00000000000000533, 35.99999999999999289 ) ) ;
#50 = EDGE_LOOP ( 'NONE', ( #23, #27, #309, #105 ) ) ;
#51 = CARTESIAN_POINT ( 'NONE',  ( 0.000000000000000000, 42.77746717230687779, 0.000000000000000000 ) ) ;
#52 = ORIENTED_EDGE ( 'NONE', *, *, #145, .T. ) ;
#53 = ORIENTED_EDGE ( 'NONE', *, *, #317, .F. ) ;
#54 = ADVANCED_BREP_SHAPE_REPRESENTATION ( '00830 Stick Tip Round Tube Rubber Black 25mm', ( #216, #256 ), #59 ) ;
#55 = VERTEX_POINT ( 'NONE', #62 ) ;
#56 = AXIS2_PLACEMENT_3D ( 'NONE', #187, #28, #128 ) ;
#57 = EDGE_LOOP ( 'NONE', ( #126, #99, #278, #174 ) ) ;
#58 = CARTESIAN_POINT ( 'NONE',  ( 0.000000000000000000, 42.00000000000000000, 0.000000000000000000 ) ) ;
#59 =( GEOMETRIC_REPRESENTATION_CONTEXT ( 3 ) GLOBAL_UNCERTAINTY_ASSIGNED_CONTEXT ( ( #298 ) ) GLOBAL_UNIT_ASSIGNED_CONTEXT ( ( #68, #120, #12 ) ) REPRESENTATION_CONTEXT ( 'NONE', 'WORKASPACE' ) );
#60 = DIRECTION ( 'NONE',  ( 0.000000000000000000, 0.000000000000000000, 1.000000000000000000 ) ) ;
#61 = PRESENTATION_STYLE_ASSIGNMENT (( #238 ) ) ;
#62 = CARTESIAN_POINT ( 'NONE',  ( 18.00000000000000355, 12.00000000000000355, 0.000000000000000000 ) ) ;
#63 = DIRECTION ( 'NONE',  ( 0.000000000000000000, 1.000000000000000000, 0.000000000000000000 ) ) ;
#64 = CARTESIAN_POINT ( 'NONE',  ( -18.00000000000000355, 12.00000000000000355, -2.204364238465235822E-15 ) ) ;
#65 = FILL_AREA_STYLE ('',( #164 ) ) ;
#66 = EDGE_CURVE ( 'NONE', #83, #55, #39, .T. ) ;
#67 = CARTESIAN_POINT ( 'NONE',  ( -1.202001254709906952E-14, 9.935685268566355743E-16, 2.404002509419813587E-14 ) ) ;
#68 =( LENGTH_UNIT ( ) NAMED_UNIT ( * ) SI_UNIT ( .MILLI., .METRE. ) );
#69 = CARTESIAN_POINT ( 'NONE',  ( 18.00000000000000355, 12.00000000000000355, 4.408728476930471644E-15 ) ) ;
#70 = FACE_OUTER_BOUND ( 'NONE', #22, .T. ) ;
#71 = DIRECTION ( 'NONE',  ( -0.000000000000000000, 1.000000000000000000, -0.000000000000000000 ) ) ;
#72 = DIRECTION ( 'NONE',  ( 0.000000000000000000, 0.000000000000000000, 1.000000000000000000 ) ) ;
#73 = CIRCLE ( 'NONE', #199, 18.00000000000000355 ) ;
#74 = CARTESIAN_POINT ( 'NONE',  ( -16.89742728267468053, 3.684815421174894023, 33.79485456534934684 ) ) ;
#75 = CARTESIAN_POINT ( 'NONE',  ( 1.530808498934191521E-15, 42.00000000000000000, -12.50000000000000000 ) ) ;
#76 = VERTEX_POINT ( 'NONE', #237 ) ;
#77 = CARTESIAN_POINT ( 'NONE',  ( 0.000000000000000000, 12.00000000000000355, 0.000000000000000000 ) ) ;
#78 = ORIENTED_EDGE ( 'NONE', *, *, #258, .T. ) ;
#79 = B_SPLINE_CURVE_WITH_KNOTS ( 'NONE', 3,
 ( #267, #322, #92, #274 ),
 .UNSPECIFIED., .F., .F.,
 ( 4, 4 ),
 ( 0.000000000000000000, 1.000000000000000000 ),
 .UNSPECIFIED. ) ;
#80 = EDGE_CURVE ( 'NONE', #209, #201, #316, .T. ) ;
#81 = ORIENTED_EDGE ( 'NONE', *, *, #286, .F. ) ;
#82 = VERTEX_POINT ( 'NONE', #75 ) ;
#83 = VERTEX_POINT ( 'NONE', #227 ) ;
#84 = CARTESIAN_POINT ( 'NONE',  ( 0.000000000000000000, 33.00000000000000000, 0.000000000000000000 ) ) ;
#85 = CARTESIAN_POINT ( 'NONE',  ( 0.000000000000000000, 12.00000000000000355, 0.000000000000000000 ) ) ;
#86 = CARTESIAN_POINT ( 'NONE',  ( 1.202001254709906794E-14, 9.935685268566355743E-16, 2.404002509419813587E-14 ) ) ;
#87 = PLANE ( 'NONE',  #137 ) ;
#88 = CARTESIAN_POINT ( 'NONE',  ( -16.89742728267467697, 3.684815421174893579, -2.069338023555270452E-15 ) ) ;
#89 = CARTESIAN_POINT ( 'NONE',  ( 2.204364238465235822E-15, 12.00000000000000355, 18.00000000000000355 ) ) ;
#90 = LINE ( 'NONE', #138, #207 ) ;
#91 = DIRECTION ( 'NONE',  ( 0.000000000000000000, 0.000000000000000000, -1.000000000000000000 ) ) ;
#92 = CARTESIAN_POINT ( 'NONE',  ( 16.89742728267467697, 3.684815421174893579, 0.000000000000000000 ) ) ;
#93 = DIRECTION ( 'NONE',  ( 0.000000000000000000, 0.000000000000000000, 1.000000000000000000 ) ) ;
#94 = DIRECTION ( 'NONE',  ( 0.000000000000000000, 0.000000000000000000, 1.000000000000000000 ) ) ;
#95 = DIRECTION ( 'NONE',  ( 0.000000000000000000, 0.000000000000000000, 1.000000000000000000 ) ) ;
#96 = DIRECTION ( 'NONE',  ( -0.000000000000000000, 1.000000000000000000, -0.000000000000000000 ) ) ;
#97 = CARTESIAN_POINT ( 'NONE',  ( 1.202001254709907109E-14, 9.935685268566355743E-16, 1.472026989151590095E-30 ) ) ;
#98 = FACE_OUTER_BOUND ( 'NONE', #254, .T. ) ;
#99 = ORIENTED_EDGE ( 'NONE', *, *, #140, .T. ) ;
#100 = FACE_OUTER_BOUND ( 'NONE', #282, .T. ) ;
#101 = ORIENTED_EDGE ( 'NONE', *, *, #26, .T. ) ;
#102 = ORIENTED_EDGE ( 'NONE', *, *, #66, .T. ) ;
#103 = AXIS2_PLACEMENT_3D ( 'NONE', #222, #96, #72 ) ;
#104 = PRODUCT_RELATED_PRODUCT_CATEGORY ( 'part', '', ( #179 ) ) ;
#105 = ORIENTED_EDGE ( 'NONE', *, *, #248, .F. ) ;
#106 = ORIENTED_EDGE ( 'NONE', *, *, #292, .F. ) ;
#107 = CARTESIAN_POINT ( 'NONE',  ( 0.000000000000000000, 42.00000000000000000, 12.50000000000000000 ) ) ;
#108 = ADVANCED_FACE ( 'NONE', ( #144, #100 ), #273, .F. ) ;
#109 = CARTESIAN_POINT ( 'NONE',  ( 18.00000000000000355, 12.00000000000000533, -35.99999999999999289 ) ) ;
#110 = CARTESIAN_POINT ( 'NONE',  ( -18.00000000000000355, 12.00000000000000355, -2.204364238465235822E-15 ) ) ;
#111 = AXIS2_PLACEMENT_3D ( 'NONE', #183, #247, #285 ) ;
#112 = CARTESIAN_POINT ( 'NONE',  ( 0.000000000000000000, 12.00000000000000355, 0.000000000000000000 ) ) ;
#113 =( NAMED_UNIT ( * ) PLANE_ANGLE_UNIT ( ) SI_UNIT ( $, .RADIAN. ) );
#114 = APPLICATION_CONTEXT ( 'automotive_design' ) ;
#115 = SHAPE_DEFINITION_REPRESENTATION ( #152, #54 ) ;
#116 = EDGE_CURVE ( 'NONE', #201, #253, #275, .T. ) ;
#117 = APPLICATION_PROTOCOL_DEFINITION ( 'draft international standard', 'automotive_design', 1998, #1 ) ;
#118 = AXIS2_PLACEMENT_3D ( 'NONE', #51, #234, #95 ) ;
#119 = DIRECTION ( 'NONE',  ( -0.000000000000000000, 1.000000000000000000, -0.000000000000000000 ) ) ;
#120 =( NAMED_UNIT ( * ) PLANE_ANGLE_UNIT ( ) SI_UNIT ( $, .RADIAN. ) );
#121 = EDGE_LOOP ( 'NONE', ( #78, #151 ) ) ;
#122 = DIRECTION ( 'NONE',  ( 0.000000000000000000, -1.000000000000000000, 0.000000000000000000 ) ) ;
#123 = ORIENTED_EDGE ( 'NONE', *, *, #145, .F. ) ;
#124 = EDGE_LOOP ( 'NONE', ( #25, #4, #3, #21, #226 ) ) ;
#125 = AXIS2_PLACEMENT_3D ( 'NONE', #210, #122, #173 ) ;
#126 = ORIENTED_EDGE ( 'NONE', *, *, #241, .F. ) ;
#127 = ORIENTED_EDGE ( 'NONE', *, *, #161, .T. ) ;
#128 = DIRECTION ( 'NONE',  ( 0.000000000000000000, 0.000000000000000000, 1.000000000000000000 ) ) ;
#129 = ADVANCED_FACE ( 'NONE', ( #225 ), #171, .F. ) ;
#130 = FACE_OUTER_BOUND ( 'NONE', #57, .T. ) ;
#131 = CARTESIAN_POINT ( 'NONE',  ( -16.89742728267467697, 3.684815421174893579, -2.069338023555270452E-15 ) ) ;
#132 = VECTOR ( 'NONE', #10, 1000.000000000000000 ) ;
#133 = FACE_OUTER_BOUND ( 'NONE', #284, .T. ) ;
#134 = EDGE_CURVE ( 'NONE', #244, #82, #301, .T. ) ;
#135 = DIRECTION ( 'NONE',  ( 0.000000000000000000, 1.000000000000000000, 0.000000000000000000 ) ) ;
#136 = CARTESIAN_POINT ( 'NONE',  ( 16.89742728267467697, 3.684815421174894023, -33.79485456534934684 ) ) ;
#137 = AXIS2_PLACEMENT_3D ( 'NONE', #185, #135, #239 ) ;
#138 = CARTESIAN_POINT ( 'NONE',  ( 1.867586368699713770E-15, 42.77746717230687779, -15.25000000000000000 ) ) ;
#139 = PRODUCT_CONTEXT ( 'NONE', #1, 'mechanical' ) ;
#140 = EDGE_CURVE ( 'NONE', #201, #209, #167, .T. ) ;
#141 = DIRECTION ( 'NONE',  ( 0.000000000000000000, 0.000000000000000000, 1.000000000000000000 ) ) ;
#142 = APPLICATION_PROTOCOL_DEFINITION ( 'draft international standard', 'automotive_design', 1998, #114 ) ;
#143 = COLOUR_RGB ( '',0.7921568627450980005, 0.8196078431372548767, 0.9333333333333333481 ) ;
#144 = FACE_BOUND ( 'NONE', #249, .T. ) ;
#145 = EDGE_CURVE ( 'NONE', #82, #244, #252, .T. ) ;
#146 = CARTESIAN_POINT ( 'NONE',  ( 1.530808498934191521E-15, 12.00000000000000355, -12.50000000000000000 ) ) ;
#147 = DIRECTION ( 'NONE',  ( -0.000000000000000000, 1.000000000000000000, -0.000000000000000000 ) ) ;
#148 = ORIENTED_EDGE ( 'NONE', *, *, #116, .F. ) ;
#149 = ORIENTED_EDGE ( 'NONE', *, *, #165, .T. ) ;
#150 = B_SPLINE_CURVE_WITH_KNOTS ( 'NONE', 3,
 ( #264, #295, #131, #262 ),
 .UNSPECIFIED., .F., .F.,
 ( 4, 4 ),
 ( 0.000000000000000000, 1.000000000000000000 ),
 .UNSPECIFIED. ) ;
#151 = ORIENTED_EDGE ( 'NONE', *, *, #15, .T. ) ;
#152 = PRODUCT_DEFINITION_SHAPE ( 'NONE', 'NONE',  #221 ) ;
#153 = ORIENTED_EDGE ( 'NONE', *, *, #80, .F. ) ;
#154 = CLOSED_SHELL ( 'NONE', ( #203, #276, #231, #302, #108, #168, #269, #315, #129, #44 ) ) ;
#155 = ORIENTED_EDGE ( 'NONE', *, *, #193, .T. ) ;
#156 = DIRECTION ( 'NONE',  ( 0.000000000000000000, 1.000000000000000000, 0.000000000000000000 ) ) ;
#157 = DIRECTION ( 'NONE',  ( -0.000000000000000000, 1.000000000000000000, -0.000000000000000000 ) ) ;
#158 = DIRECTION ( 'NONE',  ( 0.000000000000000000, 0.000000000000000000, 1.000000000000000000 ) ) ;
#159 = VECTOR ( 'NONE', #119, 1000.000000000000000 ) ;
#160 = SURFACE_STYLE_FILL_AREA ( #65 ) ;
#161 = EDGE_CURVE ( 'NONE', #310, #272, #33, .T. ) ;
#162 = LINE ( 'NONE', #89, #223 ) ;
#163 = CYLINDRICAL_SURFACE ( 'NONE', #29, 12.50000000000000000 ) ;
#164 = FILL_AREA_STYLE_COLOUR ( '', #143 ) ;
#165 = EDGE_CURVE ( 'NONE', #55, #253, #220, .T. ) ;
#166 = CARTESIAN_POINT ( 'NONE',  ( 1.867586368699713770E-15, 42.00000000000000000, -15.25000000000000000 ) ) ;
#167 = CIRCLE ( 'NONE', #24, 15.25000000000000178 ) ;
#168 = ADVANCED_FACE ( 'NONE', ( #130 ), #255, .T. ) ;
#169 = LINE ( 'NONE', #18, #159 ) ;
#170 = CARTESIAN_POINT ( 'NONE',  ( 17.75768782769467435, -0.1974548565359252328, 35.51537565538937002 ) ) ;
#171 = CYLINDRICAL_SURFACE ( 'NONE', #43, 12.50000000000000000 ) ;
#172 = CARTESIAN_POINT ( 'NONE',  ( -18.00000000000000355, 12.00000000000000355, -2.204364238465235822E-15 ) ) ;
#173 = DIRECTION ( 'NONE',  ( 0.000000000000000000, -0.000000000000000000, -1.000000000000000000 ) ) ;
#174 = ORIENTED_EDGE ( 'NONE', *, *, #161, .F. ) ;
#175 = CARTESIAN_POINT ( 'NONE',  ( 0.000000000000000000, 12.00000000000000355, 0.000000000000000000 ) ) ;
#176 = ORIENTED_EDGE ( 'NONE', *, *, #165, .F. ) ;
#177 = AXIS2_PLACEMENT_3D ( 'NONE', #314, #259, #215 ) ;
#178 = ORIENTED_EDGE ( 'NONE', *, *, #213, .F. ) ;
#179 = PRODUCT ( '00830 Stick Tip Round Tube Rubber Black 25mm', '00830 Stick Tip Round Tube Rubber Black 25mm', '', ( #139 ) ) ;
#180 = ORIENTED_EDGE ( 'NONE', *, *, #258, .F. ) ;
#181 = CIRCLE ( 'NONE', #270, 12.50000000000000000 ) ;
#182 = EDGE_CURVE ( 'NONE', #76, #244, #169, .T. ) ;
#183 = CARTESIAN_POINT ( 'NONE',  ( 0.000000000000000000, 42.00000000000000000, 0.000000000000000000 ) ) ;
#184 = CARTESIAN_POINT ( 'NONE',  ( -1.202001254709907109E-14, 9.935685268566355743E-16, 0.000000000000000000 ) ) ;
#185 = CARTESIAN_POINT ( 'NONE',  ( 0.000000000000000000, 12.00000000000000355, 0.000000000000000000 ) ) ;
#186 = CARTESIAN_POINT ( 'NONE',  ( -17.99999999999999645, 12.00000000000000533, -35.99999999999999289 ) ) ;
#187 = CARTESIAN_POINT ( 'NONE',  ( 0.000000000000000000, 33.00000000000000000, 0.000000000000000000 ) ) ;
#188 = DIRECTION ( 'NONE',  ( -0.000000000000000000, 1.000000000000000000, -0.000000000000000000 ) ) ;
#189 = CIRCLE ( 'NONE', #217, 18.00000000000000355 ) ;
#190 = CARTESIAN_POINT ( 'NONE',  ( 0.000000000000000000, 12.00000000000000355, 0.000000000000000000 ) ) ;
#191 = CARTESIAN_POINT ( 'NONE',  ( 0.000000000000000000, 42.00000000000000000, 15.25000000000000000 ) ) ;
#192 = CARTESIAN_POINT ( 'NONE',  ( 17.75768782769468501, -0.1974548565359252328, 4.349379111688842184E-15 ) ) ;
#193 = EDGE_CURVE ( 'NONE', #272, #310, #206, .T. ) ;
#194 = DIRECTION ( 'NONE',  ( 1.000000000000000000, 0.000000000000000000, 0.000000000000000000 ) ) ;
#195 = CARTESIAN_POINT ( 'NONE',  ( 0.000000000000000000, 12.00000000000000355, -18.00000000000000355 ) ) ;
#196 = AXIS2_PLACEMENT_3D ( 'NONE', #190, #157, #34 ) ;
#197 = DIRECTION ( 'NONE',  ( -0.000000000000000000, 1.000000000000000000, -0.000000000000000000 ) ) ;
#198 = CARTESIAN_POINT ( 'NONE',  ( 0.000000000000000000, 42.77746717230687779, 0.000000000000000000 ) ) ;
#199 = AXIS2_PLACEMENT_3D ( 'NONE', #268, #19, #141 ) ;
#200 = CARTESIAN_POINT ( 'NONE',  ( -1.202001254709907109E-14, 9.935685268566355743E-16, 0.000000000000000000 ) ) ;
#201 = VERTEX_POINT ( 'NONE', #20 ) ;
#202 = DIRECTION ( 'NONE',  ( -0.000000000000000000, 1.000000000000000000, -0.000000000000000000 ) ) ;
#203 = ADVANCED_FACE ( 'NONE', ( #98 ), #266, .F. ) ;
#204 = ORIENTED_EDGE ( 'NONE', *, *, #182, .T. ) ;
#205 = ORIENTED_EDGE ( 'NONE', *, *, #182, .F. ) ;
#206 = CIRCLE ( 'NONE', #103, 15.25000000000000000 ) ;
#207 = VECTOR ( 'NONE', #188, 1000.000000000000000 ) ;
#208 = CARTESIAN_POINT ( 'NONE',  ( 1.530808498934191521E-15, 12.00000000000000355, -12.50000000000000000 ) ) ;
#209 = VERTEX_POINT ( 'NONE', #296 ) ;
#210 = CARTESIAN_POINT ( 'NONE',  ( 15.25000000000000000, 42.00000000000000000, 0.000000000000000000 ) ) ;
#211 =( LENGTH_UNIT ( ) NAMED_UNIT ( * ) SI_UNIT ( .MILLI., .METRE. ) );
#212 =( NAMED_UNIT ( * ) SI_UNIT ( $, .STERADIAN. ) SOLID_ANGLE_UNIT ( ) );
#213 = EDGE_CURVE ( 'NONE', #251, #232, #150, .T. ) ;
#214 = FACE_OUTER_BOUND ( 'NONE', #124, .T. ) ;
#215 = DIRECTION ( 'NONE',  ( 0.000000000000000000, 0.000000000000000000, -1.000000000000000000 ) ) ;
#216 = MANIFOLD_SOLID_BREP ( 'Cut-Extrude1', #154 ) ;
#217 = AXIS2_PLACEMENT_3D ( 'NONE', #299, #246, #271 ) ;
#218 = CARTESIAN_POINT ( 'NONE',  ( 0.000000000000000000, 0.000000000000000000, 0.000000000000000000 ) ) ;
#219 = CARTESIAN_POINT ( 'NONE',  ( -17.75768782769468856, -0.1974548565359252328, 35.51537565538936292 ) ) ;
#220 = CIRCLE ( 'NONE', #5, 18.00000000000000355 ) ;
#221 = PRODUCT_DEFINITION ( 'UNKNOWN', '', #233, #265 ) ;
#222 = CARTESIAN_POINT ( 'NONE',  ( 0.000000000000000000, 42.00000000000000000, 0.000000000000000000 ) ) ;
#223 = VECTOR ( 'NONE', #30, 1000.000000000000114 ) ;
#224 = LINE ( 'NONE', #146, #46 ) ;
#225 = FACE_OUTER_BOUND ( 'NONE', #230, .T. ) ;
#226 = ORIENTED_EDGE ( 'NONE', *, *, #292, .T. ) ;
#227 = CARTESIAN_POINT ( 'NONE',  ( 2.204364238465235822E-15, 12.00000000000000355, 18.00000000000000355 ) ) ;
#228 = ORIENTED_EDGE ( 'NONE', *, *, #134, .T. ) ;
#229 = AXIS2_PLACEMENT_3D ( 'NONE', #257, #156, #45 ) ;
#230 = EDGE_LOOP ( 'NONE', ( #81, #180, #204, #228 ) ) ;
#231 = ADVANCED_FACE ( 'NONE', ( #40 ), #14, .T. ) ;
#232 = VERTEX_POINT ( 'NONE', #110 ) ;
#233 = PRODUCT_DEFINITION_FORMATION_WITH_SPECIFIED_SOURCE ( 'ANY', '', #179, .NOT_KNOWN. ) ;
#234 = DIRECTION ( 'NONE',  ( -0.000000000000000000, 1.000000000000000000, -0.000000000000000000 ) ) ;
#235 = DIRECTION ( 'NONE',  ( 0.000000000000000000, 1.000000000000000000, 0.000000000000000000 ) ) ;
#236 = CARTESIAN_POINT ( 'NONE',  ( 17.75768782769468501, -0.1974548565359252328, -35.51537565538936292 ) ) ;
#237 = CARTESIAN_POINT ( 'NONE',  ( 0.000000000000000000, 12.00000000000000355, 12.50000000000000000 ) ) ;
#238 = SURFACE_STYLE_USAGE ( .BOTH. , #11 ) ;
#239 = DIRECTION ( 'NONE',  ( 0.000000000000000000, -0.000000000000000000, 1.000000000000000000 ) ) ;
#240 = VECTOR ( 'NONE', #312, 1000.000000000000114 ) ;
#241 = EDGE_CURVE ( 'NONE', #201, #310, #90, .T. ) ;
#242 = CARTESIAN_POINT ( 'NONE',  ( -16.89742728267467342, 3.684815421174894023, -33.79485456534934684 ) ) ;
#243 = CYLINDRICAL_SURFACE ( 'NONE', #304, 15.25000000000000000 ) ;
#244 = VERTEX_POINT ( 'NONE', #107 ) ;
#245 = DIRECTION ( 'NONE',  ( -0.000000000000000000, 1.000000000000000000, -0.000000000000000000 ) ) ;
#246 = DIRECTION ( 'NONE',  ( -0.000000000000000000, 1.000000000000000000, -0.000000000000000000 ) ) ;
#247 = DIRECTION ( 'NONE',  ( 0.000000000000000000, 1.000000000000000000, 0.000000000000000000 ) ) ;
#248 = EDGE_CURVE ( 'NONE', #209, #272, #313, .T. ) ;
#249 = EDGE_LOOP ( 'NONE', ( #307, #123 ) ) ;
#250 = ORIENTED_EDGE ( 'NONE', *, *, #286, .T. ) ;
#251 = VERTEX_POINT ( 'NONE', #184 ) ;
#252 = CIRCLE ( 'NONE', #111, 12.50000000000000000 ) ;
#253 = VERTEX_POINT ( 'NONE', #32 ) ;
#254 = EDGE_LOOP ( 'NONE', ( #280, #6, #53, #176 ) ) ;
#255 = CYLINDRICAL_SURFACE ( 'NONE', #118, 15.25000000000000000 ) ;
#256 = AXIS2_PLACEMENT_3D ( 'NONE', #218, #94, #194 ) ;
#257 = CARTESIAN_POINT ( 'NONE',  ( 0.000000000000000000, 42.00000000000000000, 0.000000000000000000 ) ) ;
#258 = EDGE_CURVE ( 'NONE', #76, #2, #36, .T. ) ;
#259 = DIRECTION ( 'NONE',  ( 0.000000000000000000, -1.000000000000000000, 0.000000000000000000 ) ) ;
#260 = DIRECTION ( 'NONE',  ( 0.000000000000000000, -1.000000000000000000, 0.000000000000000000 ) ) ;
#261 = STYLED_ITEM ( 'NONE', ( #61 ), #216 ) ;
#262 = CARTESIAN_POINT ( 'NONE',  ( -18.00000000000000355, 12.00000000000000355, -2.204364238465235822E-15 ) ) ;
#263 = DIRECTION ( 'NONE',  ( -0.000000000000000000, 1.000000000000000000, -0.000000000000000000 ) ) ;
#264 = CARTESIAN_POINT ( 'NONE',  ( -1.202001254709907109E-14, 9.935685268566355743E-16, 0.000000000000000000 ) ) ;
#265 = PRODUCT_DEFINITION_CONTEXT ( 'detailed design', #114, 'design' ) ;
#266 =( BOUNDED_SURFACE ( )  B_SPLINE_SURFACE ( 3, 3, ( 
 ( #200, #67, #86, #287 ),
 ( #38, #236, #9, #37 ),
 ( #320, #136, #242, #88 ),
 ( #8, #109, #186, #64 ) ),
 .UNSPECIFIED., .F., .F., .T. ) 
 B_SPLINE_SURFACE_WITH_KNOTS ( ( 4, 4 ),
 ( 4, 4 ),
 ( 0.000000000000000000, 1.000000000000000000 ),
 ( 0.000000000000000000, 1.000000000000000000 ),
 .UNSPECIFIED. ) 
 GEOMETRIC_REPRESENTATION_ITEM ( )  RATIONAL_B_SPLINE_SURFACE ( (
 ( 1.000000000000000000, 0.3333333333333334259, 0.3333333333333334259, 1.000000000000000000),
 ( 1.000000000000000000, 0.3333333333333334259, 0.3333333333333334259, 1.000000000000000000),
 ( 1.000000000000000000, 0.3333333333333334259, 0.3333333333333334259, 1.000000000000000000),
 ( 1.000000000000000000, 0.3333333333333334259, 0.3333333333333334259, 1.000000000000000000) ) ) 
 REPRESENTATION_ITEM ( '' )  SURFACE ( )  );
#267 = CARTESIAN_POINT ( 'NONE',  ( -1.202001254709907109E-14, 9.935685268566355743E-16, 0.000000000000000000 ) ) ;
#268 = CARTESIAN_POINT ( 'NONE',  ( 0.000000000000000000, 12.00000000000000355, 0.000000000000000000 ) ) ;
#269 = ADVANCED_FACE ( 'NONE', ( #214 ), #319, .T. ) ;
#270 = AXIS2_PLACEMENT_3D ( 'NONE', #85, #235, #60 ) ;
#271 = DIRECTION ( 'NONE',  ( 0.000000000000000000, 0.000000000000000000, 1.000000000000000000 ) ) ;
#272 = VERTEX_POINT ( 'NONE', #191 ) ;
#273 = PLANE ( 'NONE',  #125 ) ;
#274 = CARTESIAN_POINT ( 'NONE',  ( 18.00000000000000355, 12.00000000000000355, 0.000000000000000000 ) ) ;
#275 = LINE ( 'NONE', #195, #240 ) ;
#276 = ADVANCED_FACE ( 'NONE', ( #133 ), #163, .F. ) ;
#277 = DIRECTION ( 'NONE',  ( 0.000000000000000000, 0.000000000000000000, 1.000000000000000000 ) ) ;
#278 = ORIENTED_EDGE ( 'NONE', *, *, #248, .T. ) ;
#279 = DIRECTION ( 'NONE',  ( 0.000000000000000000, 0.000000000000000000, 1.000000000000000000 ) ) ;
#280 = ORIENTED_EDGE ( 'NONE', *, *, #283, .F. ) ;
#281 = ORIENTED_EDGE ( 'NONE', *, *, #283, .T. ) ;
#282 = EDGE_LOOP ( 'NONE', ( #155, #127 ) ) ;
#283 = EDGE_CURVE ( 'NONE', #251, #55, #79, .T. ) ;
#284 = EDGE_LOOP ( 'NONE', ( #305, #250, #52, #205 ) ) ;
#285 = DIRECTION ( 'NONE',  ( 0.000000000000000000, 0.000000000000000000, 1.000000000000000000 ) ) ;
#286 = EDGE_CURVE ( 'NONE', #2, #82, #224, .T. ) ;
#287 = CARTESIAN_POINT ( 'NONE',  ( 1.202001254709907109E-14, 9.935685268566355743E-16, 1.472026989151590095E-30 ) ) ;
#288 = FACE_OUTER_BOUND ( 'NONE', #121, .T. ) ;
#289 = CARTESIAN_POINT ( 'NONE',  ( 0.000000000000000000, 12.00000000000000355, 0.000000000000000000 ) ) ;
#290 = CARTESIAN_POINT ( 'NONE',  ( 0.000000000000000000, 42.77746717230687779, 15.25000000000000000 ) ) ;
#291 = AXIS2_PLACEMENT_3D ( 'NONE', #289, #63, #158 ) ;
#292 = EDGE_CURVE ( 'NONE', #232, #83, #189, .T. ) ;
#293 =( GEOMETRIC_REPRESENTATION_CONTEXT ( 3 ) GLOBAL_UNCERTAINTY_ASSIGNED_CONTEXT ( ( #16 ) ) GLOBAL_UNIT_ASSIGNED_CONTEXT ( ( #211, #113, #212 ) ) REPRESENTATION_CONTEXT ( 'NONE', 'WORKASPACE' ) );
#294 =( BOUNDED_SURFACE ( )  B_SPLINE_SURFACE ( 3, 3, ( 
 ( #97, #325, #324, #300 ),
 ( #303, #219, #170, #192 ),
 ( #13, #74, #321, #297 ),
 ( #172, #49, #47, #69 ) ),
 .UNSPECIFIED., .F., .F., .T. ) 
 B_SPLINE_SURFACE_WITH_KNOTS ( ( 4, 4 ),
 ( 4, 4 ),
 ( 0.000000000000000000, 1.000000000000000000 ),
 ( 0.000000000000000000, 1.000000000000000000 ),
 .UNSPECIFIED. ) 
 GEOMETRIC_REPRESENTATION_ITEM ( )  RATIONAL_B_SPLINE_SURFACE ( (
 ( 1.000000000000000000, 0.3333333333333334259, 0.3333333333333334259, 1.000000000000000000),
 ( 1.000000000000000000, 0.3333333333333334259, 0.3333333333333334259, 1.000000000000000000),
 ( 1.000000000000000000, 0.3333333333333334259, 0.3333333333333334259, 1.000000000000000000),
 ( 1.000000000000000000, 0.3333333333333334259, 0.3333333333333334259, 1.000000000000000000) ) ) 
 REPRESENTATION_ITEM ( '' )  SURFACE ( )  );
#295 = CARTESIAN_POINT ( 'NONE',  ( -17.75768782769468501, -0.1974548565359252328, -2.174689555844421092E-15 ) ) ;
#296 = CARTESIAN_POINT ( 'NONE',  ( 0.000000000000000000, 33.00000000000000000, 15.25000000000000178 ) ) ;
#297 = CARTESIAN_POINT ( 'NONE',  ( 16.89742728267467697, 3.684815421174893579, 4.138676047110540904E-15 ) ) ;
#298 = UNCERTAINTY_MEASURE_WITH_UNIT (LENGTH_MEASURE( 1.000000000000000082E-05 ), #68, 'distance_accuracy_value', 'NONE');
#299 = CARTESIAN_POINT ( 'NONE',  ( 0.000000000000000000, 12.00000000000000355, 0.000000000000000000 ) ) ;
#300 = CARTESIAN_POINT ( 'NONE',  ( -1.202001254709907109E-14, 9.935685268566355743E-16, -2.944053978303180191E-30 ) ) ;
#301 = CIRCLE ( 'NONE', #229, 12.50000000000000000 ) ;
#302 = ADVANCED_FACE ( 'NONE', ( #42 ), #243, .T. ) ;
#303 = CARTESIAN_POINT ( 'NONE',  ( -17.75768782769468501, -0.1974548565359252328, -2.174689555844421092E-15 ) ) ;
#304 = AXIS2_PLACEMENT_3D ( 'NONE', #198, #17, #277 ) ;
#305 = ORIENTED_EDGE ( 'NONE', *, *, #15, .F. ) ;
#306 = DIRECTION ( 'NONE',  ( 0.000000000000000000, 0.000000000000000000, 1.000000000000000000 ) ) ;
#307 = ORIENTED_EDGE ( 'NONE', *, *, #134, .F. ) ;
#308 = PRESENTATION_LAYER_ASSIGNMENT (  '', '', ( #261 ) ) ;
#309 = ORIENTED_EDGE ( 'NONE', *, *, #193, .F. ) ;
#310 = VERTEX_POINT ( 'NONE', #166 ) ;
#311 = EDGE_LOOP ( 'NONE', ( #153, #101, #102, #149, #148 ) ) ;
#312 = DIRECTION ( 'NONE',  ( 0.000000000000000000, -0.9915344613221521719, -0.1298437985064723466 ) ) ;
#313 = LINE ( 'NONE', #290, #132 ) ;
#314 = CARTESIAN_POINT ( 'NONE',  ( 0.000000000000000000, 12.00000000000000355, 0.000000000000000000 ) ) ;
#315 = ADVANCED_FACE ( 'NONE', ( #70 ), #294, .F. ) ;
#316 = CIRCLE ( 'NONE', #56, 15.25000000000000178 ) ;
#317 = EDGE_CURVE ( 'NONE', #253, #232, #73, .T. ) ;
#318 = AXIS2_PLACEMENT_3D ( 'NONE', #58, #197, #279 ) ;
#319 = CONICAL_SURFACE ( 'NONE', #41, 18.00000000000000355, 0.1302114429643963789 ) ;
#320 = CARTESIAN_POINT ( 'NONE',  ( 16.89742728267467697, 3.684815421174893579, 0.000000000000000000 ) ) ;
#321 = CARTESIAN_POINT ( 'NONE',  ( 16.89742728267467342, 3.684815421174894023, 33.79485456534935395 ) ) ;
#322 = CARTESIAN_POINT ( 'NONE',  ( 17.75768782769468501, -0.1974548565359252328, 0.000000000000000000 ) ) ;
#323 = MECHANICAL_DESIGN_GEOMETRIC_PRESENTATION_REPRESENTATION (  '', ( #261 ), #293 ) ;
#324 = CARTESIAN_POINT ( 'NONE',  ( -1.202001254709906478E-14, 9.935685268566355743E-16, -2.404002509419813903E-14 ) ) ;
#325 = CARTESIAN_POINT ( 'NONE',  ( 1.202001254709907425E-14, 9.935685268566355743E-16, -2.404002509419813587E-14 ) ) ;
ENDSEC;
END-ISO-10303-21;
