ISO-10303-21;
HEADER;
FILE_DESCRIPTION (( 'STEP AP214' ),
    '1' );
FILE_NAME ('00580 Stick Tip Round Tube Rubber Black 28mm.STEP',
    '2024-08-20T03:37:37',
    ( '' ),
    ( '' ),
    'SwSTEP 2.0',
    'SolidWorks 2024',
    '' );
FILE_SCHEMA (( 'AUTOMOTIVE_DESIGN' ));
ENDSEC;

DATA;
#1 = CARTESIAN_POINT ( 'NONE',  ( -16.76780274203316878, -1.427265808795002977, -2.053463595676513491E-15 ) ) ;
#2 = VERTEX_POINT ( 'NONE', #239 ) ;
#3 = ADVANCED_BREP_SHAPE_REPRESENTATION ( '00580 Stick Tip Round Tube Rubber Black 28mm', ( #55, #109 ), #199 ) ;
#4 = APPLICATION_CONTEXT ( 'automotive_design' ) ;
#5 = VERTEX_POINT ( 'NONE', #217 ) ;
#6 = CARTESIAN_POINT ( 'NONE',  ( -16.49999999999999645, 4.999999999999999112, -32.99999999999999289 ) ) ;
#7 = DIRECTION ( 'NONE',  ( 0.000000000000000000, 0.000000000000000000, -1.000000000000000000 ) ) ;
#8 = ORIENTED_EDGE ( 'NONE', *, *, #214, .F. ) ;
#9 = PRODUCT_DEFINITION ( 'UNKNOWN', '', #89, #127 ) ;
#10 = AXIS2_PLACEMENT_3D ( 'NONE', #208, #234, #168 ) ;
#11 = DIRECTION ( 'NONE',  ( 0.000000000000000000, 1.000000000000000000, 0.000000000000000000 ) ) ;
#12 = DIRECTION ( 'NONE',  ( 0.000000000000000000, 0.000000000000000000, -1.000000000000000000 ) ) ;
#13 = FACE_OUTER_BOUND ( 'NONE', #156, .T. ) ;
#14 = DIRECTION ( 'NONE',  ( 0.000000000000000000, -1.000000000000000000, 0.000000000000000000 ) ) ;
#15 = DIRECTION ( 'NONE',  ( 0.000000000000000000, 0.000000000000000000, 1.000000000000000000 ) ) ;
#16 = LINE ( 'NONE', #104, #140 ) ;
#17 = ADVANCED_FACE ( 'NONE', ( #113 ), #86, .T. ) ;
#18 = CARTESIAN_POINT ( 'NONE',  ( -1.951288247008523840E-14, -5.563773460752598794E-16, -3.902576494017049574E-14 ) ) ;
#19 = CARTESIAN_POINT ( 'NONE',  ( 16.72767987423522129, 0.1723879862096356630, 33.45535974847045679 ) ) ;
#20 = CARTESIAN_POINT ( 'NONE',  ( -1.951288247008524787E-14, -5.563773460752598794E-16, 0.000000000000000000 ) ) ;
#21 = CARTESIAN_POINT ( 'NONE',  ( 16.76780274203316878, -1.427265808795002977, 4.106927191353026982E-15 ) ) ;
#22 = VECTOR ( 'NONE', #259, 1000.000000000000227 ) ;
#23 =( NAMED_UNIT ( * ) SI_UNIT ( $, .STERADIAN. ) SOLID_ANGLE_UNIT ( ) );
#24 = MECHANICAL_DESIGN_GEOMETRIC_PRESENTATION_REPRESENTATION (  '', ( #129 ), #201 ) ;
#25 = CARTESIAN_POINT ( 'NONE',  ( 0.000000000000000000, 0.000000000000000000, 0.000000000000000000 ) ) ;
#26 = CARTESIAN_POINT ( 'NONE',  ( 16.51275251152539170, 4.693939723390714747, -33.02550502305076918 ) ) ;
#27 = VERTEX_POINT ( 'NONE', #180 ) ;
#28 = B_SPLINE_CURVE_WITH_KNOTS ( 'NONE', 3,
 ( #159, #226, #121, #158, #206 ),
 .UNSPECIFIED., .F., .F.,
 ( 4, 1, 4 ),
 ( 0.000000000000000000, 0.9500000000000000666, 1.000000000000000000 ),
 .UNSPECIFIED. ) ;
#29 = ORIENTED_EDGE ( 'NONE', *, *, #64, .T. ) ;
#30 = SURFACE_SIDE_STYLE ('',( #176 ) ) ;
#31 = FACE_OUTER_BOUND ( 'NONE', #136, .T. ) ;
#32 = FACE_BOUND ( 'NONE', #108, .T. ) ;
#33 = CARTESIAN_POINT ( 'NONE',  ( 2.020667218593133100E-15, 4.999999999999997335, 16.50000000000000000 ) ) ;
#34 = AXIS2_PLACEMENT_3D ( 'NONE', #147, #236, #59 ) ;
#35 = CARTESIAN_POINT ( 'NONE',  ( -16.76780274203316878, -1.427265808795002977, -2.053463595676513491E-15 ) ) ;
#36 = DIRECTION ( 'NONE',  ( 0.000000000000000000, 1.000000000000000000, 0.000000000000000000 ) ) ;
#37 = CARTESIAN_POINT ( 'NONE',  ( 1.951288247008524787E-14, -5.563773460752598794E-16, 2.389638905912839831E-30 ) ) ;
#38 = CARTESIAN_POINT ( 'NONE',  ( -16.51275251152539170, 4.693939723390714747, -2.022228950835198514E-15 ) ) ;
#39 = ORIENTED_EDGE ( 'NONE', *, *, #98, .T. ) ;
#40 = FACE_OUTER_BOUND ( 'NONE', #95, .T. ) ;
#41 = EDGE_LOOP ( 'NONE', ( #196, #132 ) ) ;
#42 = CARTESIAN_POINT ( 'NONE',  ( 0.000000000000000000, 5.000000000000000888, 0.000000000000000000 ) ) ;
#43 = CIRCLE ( 'NONE', #34, 15.50000000000000000 ) ;
#44 = AXIS2_PLACEMENT_3D ( 'NONE', #114, #153, #7 ) ;
#45 = ORIENTED_EDGE ( 'NONE', *, *, #177, .T. ) ;
#46 = ORIENTED_EDGE ( 'NONE', *, *, #273, .T. ) ;
#47 = UNCERTAINTY_MEASURE_WITH_UNIT (LENGTH_MEASURE( 1.000000000000000082E-05 ), #197, 'distance_accuracy_value', 'NONE');
#48 = CARTESIAN_POINT ( 'NONE',  ( -16.50000000000000000, 4.999999999999999112, -2.020667218593133100E-15 ) ) ;
#49 = ORIENTED_EDGE ( 'NONE', *, *, #230, .F. ) ;
#50 = VERTEX_POINT ( 'NONE', #269 ) ;
#51 = VERTEX_POINT ( 'NONE', #266 ) ;
#52 = APPLICATION_CONTEXT ( 'automotive_design' ) ;
#53 = DIRECTION ( 'NONE',  ( 0.000000000000000000, -0.000000000000000000, 1.000000000000000000 ) ) ;
#54 = DIRECTION ( 'NONE',  ( 0.000000000000000000, 0.000000000000000000, 1.000000000000000000 ) ) ;
#55 = MANIFOLD_SOLID_BREP ( 'Cut-Extrude1', #243 ) ;
#56 = CIRCLE ( 'NONE', #128, 16.50000000000000000 ) ;
#57 = DIRECTION ( 'NONE',  ( 0.000000000000000000, 0.000000000000000000, 1.000000000000000000 ) ) ;
#58 = CARTESIAN_POINT ( 'NONE',  ( 16.72767987423522840, 0.1723879862096356907, 0.000000000000000000 ) ) ;
#59 = DIRECTION ( 'NONE',  ( 0.000000000000000000, 0.000000000000000000, 1.000000000000000000 ) ) ;
#60 = CARTESIAN_POINT ( 'NONE',  ( 16.76780274203316878, -1.427265808795002977, 0.000000000000000000 ) ) ;
#61 = ORIENTED_EDGE ( 'NONE', *, *, #230, .T. ) ;
#62 = DIRECTION ( 'NONE',  ( -0.000000000000000000, 1.000000000000000000, -0.000000000000000000 ) ) ;
#63 = DIRECTION ( 'NONE',  ( 0.000000000000000000, 0.000000000000000000, 1.000000000000000000 ) ) ;
#64 = EDGE_CURVE ( 'NONE', #91, #233, #82, .T. ) ;
#65 = ORIENTED_EDGE ( 'NONE', *, *, #209, .F. ) ;
#66 = SHAPE_DEFINITION_REPRESENTATION ( #169, #3 ) ;
#67 = ORIENTED_EDGE ( 'NONE', *, *, #78, .T. ) ;
#68 = DIRECTION ( 'NONE',  ( 0.000000000000000000, 0.000000000000000000, 1.000000000000000000 ) ) ;
#69 = ORIENTED_EDGE ( 'NONE', *, *, #88, .T. ) ;
#70 = ORIENTED_EDGE ( 'NONE', *, *, #177, .F. ) ;
#71 = CIRCLE ( 'NONE', #227, 12.50000000000000000 ) ;
#72 = COLOUR_RGB ( '',0.7921568627450980005, 0.8196078431372548767, 0.9333333333333333481 ) ;
#73 = ORIENTED_EDGE ( 'NONE', *, *, #253, .F. ) ;
#74 = DIRECTION ( 'NONE',  ( 0.000000000000000000, -0.000000000000000000, -1.000000000000000000 ) ) ;
#75 = CARTESIAN_POINT ( 'NONE',  ( 0.000000000000000000, 4.999999999999997335, 0.000000000000000000 ) ) ;
#76 = CARTESIAN_POINT ( 'NONE',  ( 0.000000000000000000, 4.999999999999997335, -16.50000000000000000 ) ) ;
#77 = DIRECTION ( 'NONE',  ( 0.000000000000000000, 0.000000000000000000, 1.000000000000000000 ) ) ;
#78 = EDGE_CURVE ( 'NONE', #171, #5, #285, .T. ) ;
#79 = DIRECTION ( 'NONE',  ( -0.000000000000000000, 1.000000000000000000, -0.000000000000000000 ) ) ;
#80 = AXIS2_PLACEMENT_3D ( 'NONE', #161, #247, #53 ) ;
#81 = CARTESIAN_POINT ( 'NONE',  ( -16.51275251152539170, 4.693939723390714747, 33.02550502305076918 ) ) ;
#82 = CIRCLE ( 'NONE', #238, 16.50000000000000000 ) ;
#83 = AXIS2_PLACEMENT_3D ( 'NONE', #75, #14, #12 ) ;
#84 = CARTESIAN_POINT ( 'NONE',  ( -16.72767987423522840, 0.1723879862096356907, -2.048549961514377202E-15 ) ) ;
#85 = CARTESIAN_POINT ( 'NONE',  ( 1.959434878635765526E-15, 29.00000000000000000, 15.50000000000000000 ) ) ;
#86 = CONICAL_SURFACE ( 'NONE', #44, 16.50000000000000000, 0.04164257909858845585 ) ;
#87 = CARTESIAN_POINT ( 'NONE',  ( 1.530808498934191521E-15, 29.00000000000000000, -12.50000000000000000 ) ) ;
#88 = EDGE_CURVE ( 'NONE', #50, #2, #155, .T. ) ;
#89 = PRODUCT_DEFINITION_FORMATION_WITH_SPECIFIED_SOURCE ( 'ANY', '', #222, .NOT_KNOWN. ) ;
#90 = CARTESIAN_POINT ( 'NONE',  ( -16.76780274203316523, -1.427265808795002977, -33.53560548406633046 ) ) ;
#91 = VERTEX_POINT ( 'NONE', #76 ) ;
#92 = ADVANCED_FACE ( 'NONE', ( #31 ), #224, .T. ) ;
#93 = ORIENTED_EDGE ( 'NONE', *, *, #78, .F. ) ;
#94 = FILL_AREA_STYLE ('',( #154 ) ) ;
#95 = EDGE_LOOP ( 'NONE', ( #112, #150, #93, #235 ) ) ;
#96 = AXIS2_PLACEMENT_3D ( 'NONE', #42, #36, #207 ) ;
#97 = CARTESIAN_POINT ( 'NONE',  ( -16.50000000000000000, 4.999999999999997335, -2.020667218593133100E-15 ) ) ;
#98 = EDGE_CURVE ( 'NONE', #2, #242, #203, .T. ) ;
#99 = CARTESIAN_POINT ( 'NONE',  ( 1.530808498934191521E-15, 5.000000000000000888, -12.50000000000000000 ) ) ;
#100 = FACE_OUTER_BOUND ( 'NONE', #193, .T. ) ;
#101 = ADVANCED_FACE ( 'NONE', ( #13 ), #184, .F. ) ;
#102 = DIRECTION ( 'NONE',  ( 0.000000000000000000, 0.000000000000000000, 1.000000000000000000 ) ) ;
#103 = FACE_OUTER_BOUND ( 'NONE', #41, .T. ) ;
#104 = CARTESIAN_POINT ( 'NONE',  ( 0.000000000000000000, 5.000000000000000888, 12.50000000000000000 ) ) ;
#105 = CARTESIAN_POINT ( 'NONE',  ( 16.72767987423522840, 0.1723879862096356907, 4.097099923028754403E-15 ) ) ;
#106 = CARTESIAN_POINT ( 'NONE',  ( -16.50000000000000711, 4.999999999999999112, 32.99999999999999289 ) ) ;
#107 = DIRECTION ( 'NONE',  ( 0.000000000000000000, 1.000000000000000000, 0.000000000000000000 ) ) ;
#108 = EDGE_LOOP ( 'NONE', ( #70, #73 ) ) ;
#109 = AXIS2_PLACEMENT_3D ( 'NONE', #25, #68, #263 ) ;
#110 = CARTESIAN_POINT ( 'NONE',  ( 1.951288247008524787E-14, -5.563773460752598794E-16, 2.389638905912839831E-30 ) ) ;
#111 = AXIS2_PLACEMENT_3D ( 'NONE', #118, #137, #202 ) ;
#112 = ORIENTED_EDGE ( 'NONE', *, *, #195, .F. ) ;
#113 = FACE_OUTER_BOUND ( 'NONE', #175, .T. ) ;
#114 = CARTESIAN_POINT ( 'NONE',  ( 0.000000000000000000, 4.999999999999997335, 0.000000000000000000 ) ) ;
#115 = ORIENTED_EDGE ( 'NONE', *, *, #64, .F. ) ;
#116 = SURFACE_STYLE_USAGE ( .BOTH. , #30 ) ;
#117 = EDGE_CURVE ( 'NONE', #219, #5, #28, .T. ) ;
#118 = CARTESIAN_POINT ( 'NONE',  ( 0.000000000000000000, 4.999999999999997335, 0.000000000000000000 ) ) ;
#119 = DIRECTION ( 'NONE',  ( 0.000000000000000000, -1.000000000000000000, 0.000000000000000000 ) ) ;
#120 = AXIS2_PLACEMENT_3D ( 'NONE', #181, #183, #102 ) ;
#121 = CARTESIAN_POINT ( 'NONE',  ( 16.76780274203316878, -1.427265808795002977, 0.000000000000000000 ) ) ;
#122 = CARTESIAN_POINT ( 'NONE',  ( -16.51275251152539170, 4.693939723390714747, -2.022228950835198514E-15 ) ) ;
#123 = CARTESIAN_POINT ( 'NONE',  ( 0.000000000000000000, 4.999999999999997335, -16.50000000000000000 ) ) ;
#124 = CARTESIAN_POINT ( 'NONE',  ( -16.72767987423522484, 0.1723879862096356630, -33.45535974847044969 ) ) ;
#125 = CARTESIAN_POINT ( 'NONE',  ( 16.50000000000000000, 4.999999999999999112, 4.041334437186266200E-15 ) ) ;
#126 = ADVANCED_FACE ( 'NONE', ( #32, #103 ), #185, .F. ) ;
#127 = PRODUCT_DEFINITION_CONTEXT ( 'detailed design', #52, 'design' ) ;
#128 = AXIS2_PLACEMENT_3D ( 'NONE', #256, #62, #144 ) ;
#129 = STYLED_ITEM ( 'NONE', ( #200 ), #55 ) ;
#130 = ORIENTED_EDGE ( 'NONE', *, *, #98, .F. ) ;
#131 = CARTESIAN_POINT ( 'NONE',  ( 16.51275251152539170, 4.693939723390714747, 0.000000000000000000 ) ) ;
#132 = ORIENTED_EDGE ( 'NONE', *, *, #258, .T. ) ;
#133 = APPLICATION_PROTOCOL_DEFINITION ( 'draft international standard', 'automotive_design', 1998, #52 ) ;
#134 = ORIENTED_EDGE ( 'NONE', *, *, #214, .T. ) ;
#135 = ORIENTED_EDGE ( 'NONE', *, *, #262, .F. ) ;
#136 = EDGE_LOOP ( 'NONE', ( #8, #65, #61, #29, #265 ) ) ;
#137 = DIRECTION ( 'NONE',  ( -0.000000000000000000, 1.000000000000000000, -0.000000000000000000 ) ) ;
#138 = PLANE ( 'NONE',  #80 ) ;
#139 = DIRECTION ( 'NONE',  ( -0.000000000000000000, 1.000000000000000000, -0.000000000000000000 ) ) ;
#140 = VECTOR ( 'NONE', #279, 1000.000000000000000 ) ;
#141 = CARTESIAN_POINT ( 'NONE',  ( -1.951288247008524787E-14, -5.563773460752598794E-16, 0.000000000000000000 ) ) ;
#142 = ADVANCED_FACE ( 'NONE', ( #249 ), #248, .F. ) ;
#143 = CARTESIAN_POINT ( 'NONE',  ( 16.72767987423522840, 0.1723879862096356630, -33.45535974847044969 ) ) ;
#144 = DIRECTION ( 'NONE',  ( 0.000000000000000000, 0.000000000000000000, 1.000000000000000000 ) ) ;
#145 = CARTESIAN_POINT ( 'NONE',  ( -1.951288247008524787E-14, -5.563773460752598794E-16, -4.779277811825679662E-30 ) ) ;
#146 = DIRECTION ( 'NONE',  ( 0.000000000000000000, 0.000000000000000000, 1.000000000000000000 ) ) ;
#147 = CARTESIAN_POINT ( 'NONE',  ( 0.000000000000000000, 29.00000000000000000, 0.000000000000000000 ) ) ;
#148 = ORIENTED_EDGE ( 'NONE', *, *, #262, .T. ) ;
#149 = CARTESIAN_POINT ( 'NONE',  ( -16.51275251152538459, 4.693939723390714747, -33.02550502305076918 ) ) ;
#150 = ORIENTED_EDGE ( 'NONE', *, *, #117, .T. ) ;
#151 = CARTESIAN_POINT ( 'NONE',  ( -16.51275251152539170, 4.693939723390714747, -2.022228950835198514E-15 ) ) ;
#152 = AXIS2_PLACEMENT_3D ( 'NONE', #275, #119, #74 ) ;
#153 = DIRECTION ( 'NONE',  ( 0.000000000000000000, -1.000000000000000000, 0.000000000000000000 ) ) ;
#154 = FILL_AREA_STYLE_COLOUR ( '', #72 ) ;
#155 = CIRCLE ( 'NONE', #270, 12.50000000000000000 ) ;
#156 = EDGE_LOOP ( 'NONE', ( #135, #39, #237, #216 ) ) ;
#157 = DIRECTION ( 'NONE',  ( -0.000000000000000000, 1.000000000000000000, -0.000000000000000000 ) ) ;
#158 = CARTESIAN_POINT ( 'NONE',  ( 16.51275251152539170, 4.693939723390714747, 0.000000000000000000 ) ) ;
#159 = CARTESIAN_POINT ( 'NONE',  ( -1.951288247008524787E-14, -5.563773460752598794E-16, 0.000000000000000000 ) ) ;
#160 = CARTESIAN_POINT ( 'NONE',  ( 0.000000000000000000, 5.000000000000000888, 0.000000000000000000 ) ) ;
#161 = CARTESIAN_POINT ( 'NONE',  ( 0.000000000000000000, 5.000000000000000888, 0.000000000000000000 ) ) ;
#162 = VECTOR ( 'NONE', #210, 1000.000000000000227 ) ;
#163 = ADVANCED_FACE ( 'NONE', ( #100 ), #138, .T. ) ;
#164 = CARTESIAN_POINT ( 'NONE',  ( -1.951288247008524787E-14, -5.563773460752598794E-16, 0.000000000000000000 ) ) ;
#165 = CARTESIAN_POINT ( 'NONE',  ( 2.020667218593133100E-15, 4.999999999999997335, 16.50000000000000000 ) ) ;
#166 = VECTOR ( 'NONE', #157, 1000.000000000000000 ) ;
#167 = CARTESIAN_POINT ( 'NONE',  ( 1.951288247008524156E-14, -5.563773460752598794E-16, 3.902576494017048943E-14 ) ) ;
#168 = DIRECTION ( 'NONE',  ( 0.000000000000000000, 0.000000000000000000, 1.000000000000000000 ) ) ;
#169 = PRODUCT_DEFINITION_SHAPE ( 'NONE', 'NONE',  #9 ) ;
#170 = CARTESIAN_POINT ( 'NONE',  ( 16.49999999999999645, 4.999999999999999112, 33.00000000000000000 ) ) ;
#171 = VERTEX_POINT ( 'NONE', #33 ) ;
#172 =( NAMED_UNIT ( * ) PLANE_ANGLE_UNIT ( ) SI_UNIT ( $, .RADIAN. ) );
#173 = ORIENTED_EDGE ( 'NONE', *, *, #240, .T. ) ;
#174 =( BOUNDED_SURFACE ( )  B_SPLINE_SURFACE ( 3, 3, ( 
 ( #110, #212, #18, #145 ),
 ( #276, #211, #19, #105 ),
 ( #231, #189, #229, #21 ),
 ( #38, #81, #190, #192 ),
 ( #283, #106, #170, #125 ) ),
 .UNSPECIFIED., .F., .F., .T. ) 
 B_SPLINE_SURFACE_WITH_KNOTS ( ( 4, 1, 4 ),
 ( 4, 4 ),
 ( 0.000000000000000000, 0.9500000000000000666, 1.000000000000000000 ),
 ( 0.000000000000000000, 1.000000000000000000 ),
 .UNSPECIFIED. ) 
 GEOMETRIC_REPRESENTATION_ITEM ( )  RATIONAL_B_SPLINE_SURFACE ( (
 ( 1.000000000000000000, 0.3333333333333334259, 0.3333333333333334259, 1.000000000000000000),
 ( 1.000000000000000000, 0.3333333333333334259, 0.3333333333333334259, 1.000000000000000000),
 ( 1.000000000000000000, 0.3333333333333334259, 0.3333333333333334259, 1.000000000000000000),
 ( 1.000000000000000000, 0.3333333333333334259, 0.3333333333333334259, 1.000000000000000000),
 ( 1.000000000000000000, 0.3333333333333334259, 0.3333333333333334259, 1.000000000000000000) ) ) 
 REPRESENTATION_ITEM ( '' )  SURFACE ( )  );
#175 = EDGE_LOOP ( 'NONE', ( #282, #134, #67, #173, #49 ) ) ;
#176 = SURFACE_STYLE_FILL_AREA ( #94 ) ;
#177 = EDGE_CURVE ( 'NONE', #27, #242, #187, .T. ) ;
#178 = APPLICATION_PROTOCOL_DEFINITION ( 'draft international standard', 'automotive_design', 1998, #4 ) ;
#179 = CIRCLE ( 'NONE', #10, 16.50000000000000000 ) ;
#180 = CARTESIAN_POINT ( 'NONE',  ( 0.000000000000000000, 29.00000000000000000, 12.50000000000000000 ) ) ;
#181 = CARTESIAN_POINT ( 'NONE',  ( 0.000000000000000000, 5.000000000000000888, 0.000000000000000000 ) ) ;
#182 = DIRECTION ( 'NONE',  ( 0.000000000000000000, 1.000000000000000000, 0.000000000000000000 ) ) ;
#183 = DIRECTION ( 'NONE',  ( -0.000000000000000000, 1.000000000000000000, -0.000000000000000000 ) ) ;
#184 = CYLINDRICAL_SURFACE ( 'NONE', #120, 12.50000000000000000 ) ;
#185 = PLANE ( 'NONE',  #152 ) ;
#186 = LINE ( 'NONE', #123, #162 ) ;
#187 = CIRCLE ( 'NONE', #191, 12.50000000000000000 ) ;
#188 = CARTESIAN_POINT ( 'NONE',  ( 0.000000000000000000, 29.00000000000000000, 0.000000000000000000 ) ) ;
#189 = CARTESIAN_POINT ( 'NONE',  ( -16.76780274203317234, -1.427265808795002977, 33.53560548406633046 ) ) ;
#190 = CARTESIAN_POINT ( 'NONE',  ( 16.51275251152538104, 4.693939723390714747, 33.02550502305078339 ) ) ;
#191 = AXIS2_PLACEMENT_3D ( 'NONE', #251, #11, #57 ) ;
#192 = CARTESIAN_POINT ( 'NONE',  ( 16.51275251152539170, 4.693939723390714747, 4.044457901670397027E-15 ) ) ;
#193 = EDGE_LOOP ( 'NONE', ( #69, #148 ) ) ;
#194 = ORIENTED_EDGE ( 'NONE', *, *, #195, .T. ) ;
#195 = EDGE_CURVE ( 'NONE', #219, #233, #284, .T. ) ;
#196 = ORIENTED_EDGE ( 'NONE', *, *, #209, .T. ) ;
#197 =( LENGTH_UNIT ( ) NAMED_UNIT ( * ) SI_UNIT ( .MILLI., .METRE. ) );
#198 = ORIENTED_EDGE ( 'NONE', *, *, #88, .F. ) ;
#199 =( GEOMETRIC_REPRESENTATION_CONTEXT ( 3 ) GLOBAL_UNCERTAINTY_ASSIGNED_CONTEXT ( ( #47 ) ) GLOBAL_UNIT_ASSIGNED_CONTEXT ( ( #197, #172, #23 ) ) REPRESENTATION_CONTEXT ( 'NONE', 'WORKASPACE' ) );
#200 = PRESENTATION_STYLE_ASSIGNMENT (( #116 ) ) ;
#201 =( GEOMETRIC_REPRESENTATION_CONTEXT ( 3 ) GLOBAL_UNCERTAINTY_ASSIGNED_CONTEXT ( ( #218 ) ) GLOBAL_UNIT_ASSIGNED_CONTEXT ( ( #272, #274, #250 ) ) REPRESENTATION_CONTEXT ( 'NONE', 'WORKASPACE' ) );
#202 = DIRECTION ( 'NONE',  ( 0.000000000000000000, 0.000000000000000000, 1.000000000000000000 ) ) ;
#203 = LINE ( 'NONE', #99, #166 ) ;
#204 =( BOUNDED_SURFACE ( )  B_SPLINE_SURFACE ( 3, 3, ( 
 ( #164, #254, #167, #37 ),
 ( #58, #143, #124, #84 ),
 ( #60, #232, #90, #1 ),
 ( #131, #26, #149, #151 ),
 ( #260, #244, #6, #48 ) ),
 .UNSPECIFIED., .F., .F., .T. ) 
 B_SPLINE_SURFACE_WITH_KNOTS ( ( 4, 1, 4 ),
 ( 4, 4 ),
 ( 0.000000000000000000, 0.9500000000000000666, 1.000000000000000000 ),
 ( 0.000000000000000000, 1.000000000000000000 ),
 .UNSPECIFIED. ) 
 GEOMETRIC_REPRESENTATION_ITEM ( )  RATIONAL_B_SPLINE_SURFACE ( (
 ( 1.000000000000000000, 0.3333333333333334259, 0.3333333333333334259, 1.000000000000000000),
 ( 1.000000000000000000, 0.3333333333333334259, 0.3333333333333334259, 1.000000000000000000),
 ( 1.000000000000000000, 0.3333333333333334259, 0.3333333333333334259, 1.000000000000000000),
 ( 1.000000000000000000, 0.3333333333333334259, 0.3333333333333334259, 1.000000000000000000),
 ( 1.000000000000000000, 0.3333333333333334259, 0.3333333333333334259, 1.000000000000000000) ) ) 
 REPRESENTATION_ITEM ( '' )  SURFACE ( )  );
#205 = PRODUCT_RELATED_PRODUCT_CATEGORY ( 'part', '', ( #222 ) ) ;
#206 = CARTESIAN_POINT ( 'NONE',  ( 16.50000000000000000, 4.999999999999997335, 0.000000000000000000 ) ) ;
#207 = DIRECTION ( 'NONE',  ( 0.000000000000000000, 0.000000000000000000, 1.000000000000000000 ) ) ;
#208 = CARTESIAN_POINT ( 'NONE',  ( 0.000000000000000000, 4.999999999999997335, 0.000000000000000000 ) ) ;
#209 = EDGE_CURVE ( 'NONE', #51, #220, #252, .T. ) ;
#210 = DIRECTION ( 'NONE',  ( 0.000000000000000000, -0.9991330730923518866, -0.04163054471218136099 ) ) ;
#211 = CARTESIAN_POINT ( 'NONE',  ( -16.72767987423523195, 0.1723879862096356630, 33.45535974847044969 ) ) ;
#212 = CARTESIAN_POINT ( 'NONE',  ( 1.951288247008525418E-14, -5.563773460752598794E-16, -3.902576494017048943E-14 ) ) ;
#213 = CIRCLE ( 'NONE', #96, 12.50000000000000000 ) ;
#214 = EDGE_CURVE ( 'NONE', #220, #171, #280, .T. ) ;
#215 = PRESENTATION_LAYER_ASSIGNMENT (  '', '', ( #129 ) ) ;
#216 = ORIENTED_EDGE ( 'NONE', *, *, #273, .F. ) ;
#217 = CARTESIAN_POINT ( 'NONE',  ( 16.50000000000000000, 4.999999999999997335, 0.000000000000000000 ) ) ;
#218 = UNCERTAINTY_MEASURE_WITH_UNIT (LENGTH_MEASURE( 1.000000000000000082E-05 ), #272, 'distance_accuracy_value', 'NONE');
#219 = VERTEX_POINT ( 'NONE', #20 ) ;
#220 = VERTEX_POINT ( 'NONE', #85 ) ;
#221 = EDGE_LOOP ( 'NONE', ( #130, #198, #46, #45 ) ) ;
#222 = PRODUCT ( '00580 Stick Tip Round Tube Rubber Black 28mm', '00580 Stick Tip Round Tube Rubber Black 28mm', '', ( #268 ) ) ;
#223 = CARTESIAN_POINT ( 'NONE',  ( 0.000000000000000000, 5.000000000000000888, 0.000000000000000000 ) ) ;
#224 = CONICAL_SURFACE ( 'NONE', #83, 16.50000000000000000, 0.04164257909858845585 ) ;
#225 = EDGE_CURVE ( 'NONE', #233, #171, #179, .T. ) ;
#226 = CARTESIAN_POINT ( 'NONE',  ( 16.72767987423522840, 0.1723879862096356907, 0.000000000000000000 ) ) ;
#227 = AXIS2_PLACEMENT_3D ( 'NONE', #188, #107, #63 ) ;
#228 = CARTESIAN_POINT ( 'NONE',  ( -16.72767987423522840, 0.1723879862096356907, -2.048549961514377202E-15 ) ) ;
#229 = CARTESIAN_POINT ( 'NONE',  ( 16.76780274203316168, -1.427265808795002977, 33.53560548406633757 ) ) ;
#230 = EDGE_CURVE ( 'NONE', #51, #91, #186, .T. ) ;
#231 = CARTESIAN_POINT ( 'NONE',  ( -16.76780274203316878, -1.427265808795002977, -2.053463595676513491E-15 ) ) ;
#232 = CARTESIAN_POINT ( 'NONE',  ( 16.76780274203316878, -1.427265808795002977, -33.53560548406633046 ) ) ;
#233 = VERTEX_POINT ( 'NONE', #257 ) ;
#234 = DIRECTION ( 'NONE',  ( -0.000000000000000000, 1.000000000000000000, -0.000000000000000000 ) ) ;
#235 = ORIENTED_EDGE ( 'NONE', *, *, #225, .F. ) ;
#236 = DIRECTION ( 'NONE',  ( -0.000000000000000000, 1.000000000000000000, -0.000000000000000000 ) ) ;
#237 = ORIENTED_EDGE ( 'NONE', *, *, #253, .T. ) ;
#238 = AXIS2_PLACEMENT_3D ( 'NONE', #245, #139, #77 ) ;
#239 = CARTESIAN_POINT ( 'NONE',  ( 1.530808498934191521E-15, 5.000000000000000888, -12.50000000000000000 ) ) ;
#240 = EDGE_CURVE ( 'NONE', #5, #91, #56, .T. ) ;
#241 = ORIENTED_EDGE ( 'NONE', *, *, #117, .F. ) ;
#242 = VERTEX_POINT ( 'NONE', #87 ) ;
#243 = CLOSED_SHELL ( 'NONE', ( #281, #101, #17, #126, #92, #246, #142, #163 ) ) ;
#244 = CARTESIAN_POINT ( 'NONE',  ( 16.50000000000000000, 4.999999999999999112, -32.99999999999999289 ) ) ;
#245 = CARTESIAN_POINT ( 'NONE',  ( 0.000000000000000000, 4.999999999999997335, 0.000000000000000000 ) ) ;
#246 = ADVANCED_FACE ( 'NONE', ( #40 ), #174, .F. ) ;
#247 = DIRECTION ( 'NONE',  ( 0.000000000000000000, 1.000000000000000000, 0.000000000000000000 ) ) ;
#248 = CYLINDRICAL_SURFACE ( 'NONE', #267, 12.50000000000000000 ) ;
#249 = FACE_OUTER_BOUND ( 'NONE', #221, .T. ) ;
#250 =( NAMED_UNIT ( * ) SI_UNIT ( $, .STERADIAN. ) SOLID_ANGLE_UNIT ( ) );
#251 = CARTESIAN_POINT ( 'NONE',  ( 0.000000000000000000, 29.00000000000000000, 0.000000000000000000 ) ) ;
#252 = CIRCLE ( 'NONE', #277, 15.50000000000000000 ) ;
#253 = EDGE_CURVE ( 'NONE', #242, #27, #71, .T. ) ;
#254 = CARTESIAN_POINT ( 'NONE',  ( -1.951288247008524787E-14, -5.563773460752598794E-16, 3.902576494017048943E-14 ) ) ;
#255 = DIRECTION ( 'NONE',  ( -0.000000000000000000, 1.000000000000000000, -0.000000000000000000 ) ) ;
#256 = CARTESIAN_POINT ( 'NONE',  ( 0.000000000000000000, 4.999999999999997335, 0.000000000000000000 ) ) ;
#257 = CARTESIAN_POINT ( 'NONE',  ( -16.50000000000000000, 4.999999999999997335, -2.020667218593133100E-15 ) ) ;
#258 = EDGE_CURVE ( 'NONE', #220, #51, #43, .T. ) ;
#259 = DIRECTION ( 'NONE',  ( 5.098271332853366612E-18, -0.9991330730923518866, 0.04163054471218136099 ) ) ;
#260 = CARTESIAN_POINT ( 'NONE',  ( 16.50000000000000000, 4.999999999999999112, 0.000000000000000000 ) ) ;
#261 = EDGE_LOOP ( 'NONE', ( #241, #194, #115, #264 ) ) ;
#262 = EDGE_CURVE ( 'NONE', #2, #50, #213, .T. ) ;
#263 = DIRECTION ( 'NONE',  ( 1.000000000000000000, 0.000000000000000000, 0.000000000000000000 ) ) ;
#264 = ORIENTED_EDGE ( 'NONE', *, *, #240, .F. ) ;
#265 = ORIENTED_EDGE ( 'NONE', *, *, #225, .T. ) ;
#266 = CARTESIAN_POINT ( 'NONE',  ( 0.000000000000000000, 29.00000000000000000, -15.50000000000000000 ) ) ;
#267 = AXIS2_PLACEMENT_3D ( 'NONE', #223, #79, #54 ) ;
#268 = PRODUCT_CONTEXT ( 'NONE', #4, 'mechanical' ) ;
#269 = CARTESIAN_POINT ( 'NONE',  ( 0.000000000000000000, 5.000000000000000888, 12.50000000000000000 ) ) ;
#270 = AXIS2_PLACEMENT_3D ( 'NONE', #160, #182, #15 ) ;
#271 = CARTESIAN_POINT ( 'NONE',  ( 0.000000000000000000, 29.00000000000000000, 0.000000000000000000 ) ) ;
#272 =( LENGTH_UNIT ( ) NAMED_UNIT ( * ) SI_UNIT ( .MILLI., .METRE. ) );
#273 = EDGE_CURVE ( 'NONE', #50, #27, #16, .T. ) ;
#274 =( NAMED_UNIT ( * ) PLANE_ANGLE_UNIT ( ) SI_UNIT ( $, .RADIAN. ) );
#275 = CARTESIAN_POINT ( 'NONE',  ( 15.50000000000000000, 29.00000000000000000, 0.000000000000000000 ) ) ;
#276 = CARTESIAN_POINT ( 'NONE',  ( -16.72767987423522840, 0.1723879862096356907, -2.048549961514377202E-15 ) ) ;
#277 = AXIS2_PLACEMENT_3D ( 'NONE', #271, #255, #146 ) ;
#278 = FACE_OUTER_BOUND ( 'NONE', #261, .T. ) ;
#279 = DIRECTION ( 'NONE',  ( -0.000000000000000000, 1.000000000000000000, -0.000000000000000000 ) ) ;
#280 = LINE ( 'NONE', #165, #22 ) ;
#281 = ADVANCED_FACE ( 'NONE', ( #278 ), #204, .F. ) ;
#282 = ORIENTED_EDGE ( 'NONE', *, *, #258, .F. ) ;
#283 = CARTESIAN_POINT ( 'NONE',  ( -16.50000000000000000, 4.999999999999999112, -2.020667218593133100E-15 ) ) ;
#284 = B_SPLINE_CURVE_WITH_KNOTS ( 'NONE', 3,
 ( #141, #228, #35, #122, #97 ),
 .UNSPECIFIED., .F., .F.,
 ( 4, 1, 4 ),
 ( 0.000000000000000000, 0.9500000000000000666, 1.000000000000000000 ),
 .UNSPECIFIED. ) ;
#285 = CIRCLE ( 'NONE', #111, 16.50000000000000000 ) ;
ENDSEC;
END-ISO-10303-21;
