ISO-10303-21;
HEADER;
FILE_DESCRIPTION (( 'STEP AP214' ),
    '1' );
FILE_NAME ('03191 - Webbing Strap Black 25mm.STEP',
    '2025-11-06T02:26:46',
    ( '' ),
    ( '' ),
    'SwSTEP 2.0',
    'SolidWorks 2025',
    '' );
FILE_SCHEMA (( 'AUTOMOTIVE_DESIGN' ));
ENDSEC;

DATA;
#1 = MANIFOLD_SOLID_BREP ( 'Boss-Extrude1', #92 ) ;
#2 = COLOUR_RGB ( '',0.7921568627450980005, 0.8196078431372548767, 0.9333333333333333481 ) ;
#3 = LINE ( 'NONE', #159, #158 ) ;
#4 = FACE_OUTER_BOUND ( 'NONE', #40, .T. ) ;
#5 = LINE ( 'NONE', #61, #12 ) ;
#6 = CARTESIAN_POINT ( 'NONE',  ( 250.0000000000000568, 1.300000000000000044, -12.50000000000000000 ) ) ;
#7 = CARTESIAN_POINT ( 'NONE',  ( 250.0000000000000568, 1.300000000000000044, 12.50000000000000000 ) ) ;
#8 = EDGE_CURVE ( 'NONE', #25, #16, #187, .T. ) ;
#9 = AXIS2_PLACEMENT_3D ( 'NONE', #91, #129, #43 ) ;
#10 = STYLED_ITEM ( 'NONE', ( #67 ), #1 ) ;
#11 = PRODUCT_DEFINITION ( 'UNKNOWN', '', #58, #106 ) ;
#12 = VECTOR ( 'NONE', #111, 1000.000000000000000 ) ;
#13 = ORIENTED_EDGE ( 'NONE', *, *, #75, .F. ) ;
#14 = SURFACE_STYLE_FILL_AREA ( #39 ) ;
#15 = EDGE_LOOP ( 'NONE', ( #27, #133, #184, #134 ) ) ;
#16 = VERTEX_POINT ( 'NONE', #174 ) ;
#17 = FACE_OUTER_BOUND ( 'NONE', #84, .T. ) ;
#18 = DIRECTION ( 'NONE',  ( -0.000000000000000000, -1.000000000000000000, -0.000000000000000000 ) ) ;
#19 = LINE ( 'NONE', #138, #64 ) ;
#20 = DIRECTION ( 'NONE',  ( 0.000000000000000000, 0.000000000000000000, 1.000000000000000000 ) ) ;
#21 = CARTESIAN_POINT ( 'NONE',  ( -249.9999999999999432, 0.000000000000000000, -12.50000000000000000 ) ) ;
#22 = DIRECTION ( 'NONE',  ( 1.000000000000000000, -0.000000000000000000, 0.000000000000000000 ) ) ;
#23 = DIRECTION ( 'NONE',  ( 0.000000000000000000, 0.000000000000000000, 1.000000000000000000 ) ) ;
#24 = DIRECTION ( 'NONE',  ( 0.000000000000000000, -1.000000000000000000, 0.000000000000000000 ) ) ;
#25 = VERTEX_POINT ( 'NONE', #87 ) ;
#26 = ORIENTED_EDGE ( 'NONE', *, *, #172, .T. ) ;
#27 = ORIENTED_EDGE ( 'NONE', *, *, #70, .T. ) ;
#28 = EDGE_CURVE ( 'NONE', #120, #25, #3, .T. ) ;
#29 =( LENGTH_UNIT ( ) NAMED_UNIT ( * ) SI_UNIT ( .MILLI., .METRE. ) );
#30 = DIRECTION ( 'NONE',  ( -1.000000000000000000, -0.000000000000000000, -0.000000000000000000 ) ) ;
#31 = CARTESIAN_POINT ( 'NONE',  ( 0.000000000000000000, 1.300000000000000044, 0.000000000000000000 ) ) ;
#32 = PLANE ( 'NONE',  #175 ) ;
#33 = CARTESIAN_POINT ( 'NONE',  ( 250.0000000000000568, 0.000000000000000000, 12.50000000000000000 ) ) ;
#34 = ADVANCED_FACE ( 'NONE', ( #17 ), #69, .T. ) ;
#35 = APPLICATION_PROTOCOL_DEFINITION ( 'draft international standard', 'automotive_design', 1998, #116 ) ;
#36 = EDGE_CURVE ( 'NONE', #25, #144, #132, .T. ) ;
#37 = ADVANCED_FACE ( 'NONE', ( #125 ), #32, .F. ) ;
#38 = ORIENTED_EDGE ( 'NONE', *, *, #51, .F. ) ;
#39 = FILL_AREA_STYLE ('',( #122 ) ) ;
#40 = EDGE_LOOP ( 'NONE', ( #85, #38, #183, #173 ) ) ;
#41 = EDGE_CURVE ( 'NONE', #144, #82, #57, .T. ) ;
#42 = ORIENTED_EDGE ( 'NONE', *, *, #8, .F. ) ;
#43 = DIRECTION ( 'NONE',  ( 0.000000000000000000, 0.000000000000000000, 1.000000000000000000 ) ) ;
#44 = CARTESIAN_POINT ( 'NONE',  ( 250.0000000000000568, 0.000000000000000000, -12.50000000000000000 ) ) ;
#45 = FACE_OUTER_BOUND ( 'NONE', #186, .T. ) ;
#46 = CARTESIAN_POINT ( 'NONE',  ( -249.9999999999999432, 1.300000000000000044, -12.50000000000000000 ) ) ;
#47 = DIRECTION ( 'NONE',  ( 0.000000000000000000, 0.000000000000000000, -1.000000000000000000 ) ) ;
#48 =( GEOMETRIC_REPRESENTATION_CONTEXT ( 3 ) GLOBAL_UNCERTAINTY_ASSIGNED_CONTEXT ( ( #53 ) ) GLOBAL_UNIT_ASSIGNED_CONTEXT ( ( #29, #99, #118 ) ) REPRESENTATION_CONTEXT ( 'NONE', 'WORKASPACE' ) );
#49 = ORIENTED_EDGE ( 'NONE', *, *, #161, .F. ) ;
#50 = VECTOR ( 'NONE', #112, 1000.000000000000000 ) ;
#51 = EDGE_CURVE ( 'NONE', #143, #66, #5, .T. ) ;
#52 = SURFACE_STYLE_USAGE ( .BOTH. , #102 ) ;
#53 = UNCERTAINTY_MEASURE_WITH_UNIT (LENGTH_MEASURE( 1.000000000000000082E-05 ), #29, 'distance_accuracy_value', 'NONE');
#54 = ORIENTED_EDGE ( 'NONE', *, *, #88, .T. ) ;
#55 =( GEOMETRIC_REPRESENTATION_CONTEXT ( 3 ) GLOBAL_UNCERTAINTY_ASSIGNED_CONTEXT ( ( #86 ) ) GLOBAL_UNIT_ASSIGNED_CONTEXT ( ( #71, #78, #157 ) ) REPRESENTATION_CONTEXT ( 'NONE', 'WORKASPACE' ) );
#56 = LINE ( 'NONE', #76, #93 ) ;
#57 = LINE ( 'NONE', #7, #50 ) ;
#58 = PRODUCT_DEFINITION_FORMATION_WITH_SPECIFIED_SOURCE ( 'ANY', '', #79, .NOT_KNOWN. ) ;
#59 = LINE ( 'NONE', #33, #180 ) ;
#60 = CARTESIAN_POINT ( 'NONE',  ( 250.0000000000000568, 1.300000000000000044, 12.50000000000000000 ) ) ;
#61 = CARTESIAN_POINT ( 'NONE',  ( 250.0000000000000568, 1.300000000000000044, -12.50000000000000000 ) ) ;
#62 = AXIS2_PLACEMENT_3D ( 'NONE', #135, #24, #81 ) ;
#63 = EDGE_CURVE ( 'NONE', #68, #16, #178, .T. ) ;
#64 = VECTOR ( 'NONE', #126, 1000.000000000000000 ) ;
#65 = PRODUCT_RELATED_PRODUCT_CATEGORY ( 'part', '', ( #79 ) ) ;
#66 = VERTEX_POINT ( 'NONE', #44 ) ;
#67 = PRESENTATION_STYLE_ASSIGNMENT (( #52 ) ) ;
#68 = VERTEX_POINT ( 'NONE', #21 ) ;
#69 = PLANE ( 'NONE',  #62 ) ;
#70 = EDGE_CURVE ( 'NONE', #144, #143, #149, .T. ) ;
#71 =( LENGTH_UNIT ( ) NAMED_UNIT ( * ) SI_UNIT ( .MILLI., .METRE. ) );
#72 = DIRECTION ( 'NONE',  ( 1.000000000000000000, 0.000000000000000000, 0.000000000000000000 ) ) ;
#73 = PLANE ( 'NONE',  #80 ) ;
#74 = DIRECTION ( 'NONE',  ( 1.000000000000000000, 0.000000000000000000, -0.000000000000000000 ) ) ;
#75 = EDGE_CURVE ( 'NONE', #143, #120, #90, .T. ) ;
#76 = CARTESIAN_POINT ( 'NONE',  ( -249.9999999999999432, 0.000000000000000000, -12.50000000000000000 ) ) ;
#77 = ADVANCED_FACE ( 'NONE', ( #4 ), #167, .F. ) ;
#78 =( NAMED_UNIT ( * ) PLANE_ANGLE_UNIT ( ) SI_UNIT ( $, .RADIAN. ) );
#79 = PRODUCT ( '03191 - Webbing Strap Black 25mm', '03191 - Webbing Strap Black 25mm', '', ( #140 ) ) ;
#80 = AXIS2_PLACEMENT_3D ( 'NONE', #137, #22, #113 ) ;
#81 = DIRECTION ( 'NONE',  ( 0.000000000000000000, -0.000000000000000000, -1.000000000000000000 ) ) ;
#82 = VERTEX_POINT ( 'NONE', #152 ) ;
#83 = ADVANCED_FACE ( 'NONE', ( #45 ), #169, .F. ) ;
#84 = EDGE_LOOP ( 'NONE', ( #146, #145, #130, #49 ) ) ;
#85 = ORIENTED_EDGE ( 'NONE', *, *, #114, .T. ) ;
#86 = UNCERTAINTY_MEASURE_WITH_UNIT (LENGTH_MEASURE( 1.000000000000000082E-05 ), #71, 'distance_accuracy_value', 'NONE');
#87 = CARTESIAN_POINT ( 'NONE',  ( -249.9999999999999432, 1.300000000000000044, 12.50000000000000000 ) ) ;
#88 = EDGE_CURVE ( 'NONE', #16, #82, #19, .T. ) ;
#89 = DIRECTION ( 'NONE',  ( -0.000000000000000000, -0.000000000000000000, 1.000000000000000000 ) ) ;
#90 = LINE ( 'NONE', #46, #124 ) ;
#91 = CARTESIAN_POINT ( 'NONE',  ( 250.0000000000000568, 1.300000000000000044, 12.50000000000000000 ) ) ;
#92 = CLOSED_SHELL ( 'NONE', ( #77, #83, #131, #119, #37, #34 ) ) ;
#93 = VECTOR ( 'NONE', #128, 1000.000000000000000 ) ;
#94 = CARTESIAN_POINT ( 'NONE',  ( -249.9999999999999432, 0.000000000000000000, 12.50000000000000000 ) ) ;
#95 = APPLICATION_PROTOCOL_DEFINITION ( 'draft international standard', 'automotive_design', 1998, #148 ) ;
#96 = ORIENTED_EDGE ( 'NONE', *, *, #51, .T. ) ;
#97 = DIRECTION ( 'NONE',  ( 1.000000000000000000, 0.000000000000000000, 0.000000000000000000 ) ) ;
#98 = VECTOR ( 'NONE', #163, 1000.000000000000000 ) ;
#99 =( NAMED_UNIT ( * ) PLANE_ANGLE_UNIT ( ) SI_UNIT ( $, .RADIAN. ) );
#100 = VECTOR ( 'NONE', #18, 1000.000000000000000 ) ;
#101 = ORIENTED_EDGE ( 'NONE', *, *, #41, .F. ) ;
#102 = SURFACE_SIDE_STYLE ('',( #14 ) ) ;
#103 = ORIENTED_EDGE ( 'NONE', *, *, #63, .T. ) ;
#104 = AXIS2_PLACEMENT_3D ( 'NONE', #153, #20, #74 ) ;
#105 = CARTESIAN_POINT ( 'NONE',  ( -249.9999999999999432, 1.300000000000000044, 12.50000000000000000 ) ) ;
#106 = PRODUCT_DEFINITION_CONTEXT ( 'detailed design', #148, 'design' ) ;
#107 = DIRECTION ( 'NONE',  ( 0.000000000000000000, 0.000000000000000000, -1.000000000000000000 ) ) ;
#108 = DIRECTION ( 'NONE',  ( 0.000000000000000000, 0.000000000000000000, -1.000000000000000000 ) ) ;
#109 = VECTOR ( 'NONE', #72, 1000.000000000000000 ) ;
#110 = VECTOR ( 'NONE', #108, 1000.000000000000000 ) ;
#111 = DIRECTION ( 'NONE',  ( -0.000000000000000000, -1.000000000000000000, -0.000000000000000000 ) ) ;
#112 = DIRECTION ( 'NONE',  ( -0.000000000000000000, -1.000000000000000000, -0.000000000000000000 ) ) ;
#113 = DIRECTION ( 'NONE',  ( 0.000000000000000000, 0.000000000000000000, -1.000000000000000000 ) ) ;
#114 = EDGE_CURVE ( 'NONE', #82, #66, #59, .T. ) ;
#115 = CARTESIAN_POINT ( 'NONE',  ( 0.000000000000000000, 0.000000000000000000, 0.000000000000000000 ) ) ;
#116 = APPLICATION_CONTEXT ( 'automotive_design' ) ;
#117 = EDGE_LOOP ( 'NONE', ( #103, #42, #176, #26 ) ) ;
#118 =( NAMED_UNIT ( * ) SI_UNIT ( $, .STERADIAN. ) SOLID_ANGLE_UNIT ( ) );
#119 = ADVANCED_FACE ( 'NONE', ( #168 ), #164, .F. ) ;
#120 = VERTEX_POINT ( 'NONE', #127 ) ;
#121 = ORIENTED_EDGE ( 'NONE', *, *, #161, .T. ) ;
#122 = FILL_AREA_STYLE_COLOUR ( '', #2 ) ;
#123 = MECHANICAL_DESIGN_GEOMETRIC_PRESENTATION_REPRESENTATION (  '', ( #10 ), #48 ) ;
#124 = VECTOR ( 'NONE', #30, 1000.000000000000000 ) ;
#125 = FACE_OUTER_BOUND ( 'NONE', #15, .T. ) ;
#126 = DIRECTION ( 'NONE',  ( 1.000000000000000000, 0.000000000000000000, 0.000000000000000000 ) ) ;
#127 = CARTESIAN_POINT ( 'NONE',  ( -249.9999999999999432, 1.300000000000000044, -12.50000000000000000 ) ) ;
#128 = DIRECTION ( 'NONE',  ( -1.000000000000000000, -0.000000000000000000, -0.000000000000000000 ) ) ;
#129 = DIRECTION ( 'NONE',  ( -1.000000000000000000, 0.000000000000000000, 0.000000000000000000 ) ) ;
#130 = ORIENTED_EDGE ( 'NONE', *, *, #63, .F. ) ;
#131 = ADVANCED_FACE ( 'NONE', ( #181 ), #73, .F. ) ;
#132 = LINE ( 'NONE', #185, #109 ) ;
#133 = ORIENTED_EDGE ( 'NONE', *, *, #75, .T. ) ;
#134 = ORIENTED_EDGE ( 'NONE', *, *, #36, .T. ) ;
#135 = CARTESIAN_POINT ( 'NONE',  ( 0.000000000000000000, 0.000000000000000000, 0.000000000000000000 ) ) ;
#136 = DIRECTION ( 'NONE',  ( 0.000000000000000000, -1.000000000000000000, 0.000000000000000000 ) ) ;
#137 = CARTESIAN_POINT ( 'NONE',  ( -249.9999999999999432, 1.300000000000000044, 12.50000000000000000 ) ) ;
#138 = CARTESIAN_POINT ( 'NONE',  ( -249.9999999999999432, 0.000000000000000000, 12.50000000000000000 ) ) ;
#139 = CARTESIAN_POINT ( 'NONE',  ( -249.9999999999999432, 1.300000000000000044, -12.50000000000000000 ) ) ;
#140 = PRODUCT_CONTEXT ( 'NONE', #116, 'mechanical' ) ;
#141 = PRODUCT_DEFINITION_SHAPE ( 'NONE', 'NONE',  #11 ) ;
#142 = AXIS2_PLACEMENT_3D ( 'NONE', #179, #47, #154 ) ;
#143 = VERTEX_POINT ( 'NONE', #6 ) ;
#144 = VERTEX_POINT ( 'NONE', #60 ) ;
#145 = ORIENTED_EDGE ( 'NONE', *, *, #88, .F. ) ;
#146 = ORIENTED_EDGE ( 'NONE', *, *, #114, .F. ) ;
#147 = DIRECTION ( 'NONE',  ( -0.000000000000000000, -0.000000000000000000, 1.000000000000000000 ) ) ;
#148 = APPLICATION_CONTEXT ( 'automotive_design' ) ;
#149 = LINE ( 'NONE', #151, #110 ) ;
#150 = PRESENTATION_LAYER_ASSIGNMENT (  '', '', ( #10 ) ) ;
#151 = CARTESIAN_POINT ( 'NONE',  ( 250.0000000000000568, 1.300000000000000044, 12.50000000000000000 ) ) ;
#152 = CARTESIAN_POINT ( 'NONE',  ( 250.0000000000000568, 0.000000000000000000, 12.50000000000000000 ) ) ;
#153 = CARTESIAN_POINT ( 'NONE',  ( -249.9999999999999432, 1.300000000000000044, -12.50000000000000000 ) ) ;
#154 = DIRECTION ( 'NONE',  ( -1.000000000000000000, 0.000000000000000000, -0.000000000000000000 ) ) ;
#155 = SHAPE_DEFINITION_REPRESENTATION ( #141, #166 ) ;
#156 = VECTOR ( 'NONE', #89, 1000.000000000000000 ) ;
#157 =( NAMED_UNIT ( * ) SI_UNIT ( $, .STERADIAN. ) SOLID_ANGLE_UNIT ( ) );
#158 = VECTOR ( 'NONE', #147, 1000.000000000000000 ) ;
#159 = CARTESIAN_POINT ( 'NONE',  ( -249.9999999999999432, 1.300000000000000044, 12.50000000000000000 ) ) ;
#160 = ORIENTED_EDGE ( 'NONE', *, *, #8, .T. ) ;
#161 = EDGE_CURVE ( 'NONE', #66, #68, #56, .T. ) ;
#162 = ORIENTED_EDGE ( 'NONE', *, *, #172, .F. ) ;
#163 = DIRECTION ( 'NONE',  ( -0.000000000000000000, -1.000000000000000000, -0.000000000000000000 ) ) ;
#164 = PLANE ( 'NONE',  #142 ) ;
#165 = DIRECTION ( 'NONE',  ( 0.000000000000000000, -0.000000000000000000, -1.000000000000000000 ) ) ;
#166 = ADVANCED_BREP_SHAPE_REPRESENTATION ( '03191 - Webbing Strap Black 25mm', ( #1, #170 ), #55 ) ;
#167 = PLANE ( 'NONE',  #9 ) ;
#168 = FACE_OUTER_BOUND ( 'NONE', #177, .T. ) ;
#169 = PLANE ( 'NONE',  #104 ) ;
#170 = AXIS2_PLACEMENT_3D ( 'NONE', #115, #23, #97 ) ;
#171 = ORIENTED_EDGE ( 'NONE', *, *, #36, .F. ) ;
#172 = EDGE_CURVE ( 'NONE', #120, #68, #182, .T. ) ;
#173 = ORIENTED_EDGE ( 'NONE', *, *, #41, .T. ) ;
#174 = CARTESIAN_POINT ( 'NONE',  ( -249.9999999999999432, 0.000000000000000000, 12.50000000000000000 ) ) ;
#175 = AXIS2_PLACEMENT_3D ( 'NONE', #31, #136, #165 ) ;
#176 = ORIENTED_EDGE ( 'NONE', *, *, #28, .F. ) ;
#177 = EDGE_LOOP ( 'NONE', ( #54, #101, #171, #160 ) ) ;
#178 = LINE ( 'NONE', #94, #156 ) ;
#179 = CARTESIAN_POINT ( 'NONE',  ( -249.9999999999999432, 1.300000000000000044, 12.50000000000000000 ) ) ;
#180 = VECTOR ( 'NONE', #107, 1000.000000000000000 ) ;
#181 = FACE_OUTER_BOUND ( 'NONE', #117, .T. ) ;
#182 = LINE ( 'NONE', #139, #100 ) ;
#183 = ORIENTED_EDGE ( 'NONE', *, *, #70, .F. ) ;
#184 = ORIENTED_EDGE ( 'NONE', *, *, #28, .T. ) ;
#185 = CARTESIAN_POINT ( 'NONE',  ( -249.9999999999999432, 1.300000000000000044, 12.50000000000000000 ) ) ;
#186 = EDGE_LOOP ( 'NONE', ( #121, #162, #13, #96 ) ) ;
#187 = LINE ( 'NONE', #105, #98 ) ;
ENDSEC;
END-ISO-10303-21;
