ISO-10303-21;
HEADER;
FILE_DESCRIPTION (( 'STEP AP214' ),
    '1' );
FILE_NAME ('05729 - Webbing Strap Black 50mm.STEP',
    '2025-11-06T01:40:08',
    ( '' ),
    ( '' ),
    'SwSTEP 2.0',
    'SolidWorks 2025',
    '' );
FILE_SCHEMA (( 'AUTOMOTIVE_DESIGN' ));
ENDSEC;

DATA;
#1 = LINE ( 'NONE', #18, #34 ) ;
#2 = DIRECTION ( 'NONE',  ( 0.000000000000000000, -0.000000000000000000, -1.000000000000000000 ) ) ;
#3 = VECTOR ( 'NONE', #134, 1000.000000000000000 ) ;
#4 = DIRECTION ( 'NONE',  ( 0.000000000000000000, 0.000000000000000000, 1.000000000000000000 ) ) ;
#5 = ADVANCED_FACE ( 'NONE', ( #94 ), #31, .F. ) ;
#6 = DIRECTION ( 'NONE',  ( 0.000000000000000000, -0.000000000000000000, -1.000000000000000000 ) ) ;
#7 = VECTOR ( 'NONE', #136, 1000.000000000000000 ) ;
#8 = CARTESIAN_POINT ( 'NONE',  ( 249.9999999999997726, 0.6500000000000000222, -25.00000000000000000 ) ) ;
#9 = ORIENTED_EDGE ( 'NONE', *, *, #147, .F. ) ;
#10 = ORIENTED_EDGE ( 'NONE', *, *, #12, .T. ) ;
#11 = ORIENTED_EDGE ( 'NONE', *, *, #124, .F. ) ;
#12 = EDGE_CURVE ( 'NONE', #126, #140, #176, .T. ) ;
#13 = DIRECTION ( 'NONE',  ( -1.000000000000000000, -0.000000000000000000, -0.000000000000000000 ) ) ;
#14 = UNCERTAINTY_MEASURE_WITH_UNIT (LENGTH_MEASURE( 1.000000000000000082E-05 ), #48, 'distance_accuracy_value', 'NONE');
#15 = CARTESIAN_POINT ( 'NONE',  ( -250.0000000000002274, 0.6500000000000000222, -25.00000000000000000 ) ) ;
#16 = LINE ( 'NONE', #50, #17 ) ;
#17 = VECTOR ( 'NONE', #118, 1000.000000000000000 ) ;
#18 = CARTESIAN_POINT ( 'NONE',  ( -250.0000000000002274, 0.6500000000000000222, 25.00000000000000000 ) ) ;
#19 = EDGE_CURVE ( 'NONE', #184, #183, #178, .T. ) ;
#20 = LINE ( 'NONE', #44, #66 ) ;
#21 = CARTESIAN_POINT ( 'NONE',  ( -250.0000000000002274, -0.6500000000000000222, 25.00000000000000000 ) ) ;
#22 = PRODUCT_DEFINITION_FORMATION_WITH_SPECIFIED_SOURCE ( 'ANY', '', #138, .NOT_KNOWN. ) ;
#23 = PRODUCT_DEFINITION ( 'UNKNOWN', '', #22, #175 ) ;
#24 = PRODUCT_DEFINITION_SHAPE ( 'NONE', 'NONE',  #23 ) ;
#25 = LINE ( 'NONE', #109, #7 ) ;
#26 = APPLICATION_PROTOCOL_DEFINITION ( 'draft international standard', 'automotive_design', 1998, #163 ) ;
#27 = VECTOR ( 'NONE', #33, 1000.000000000000000 ) ;
#28 = EDGE_LOOP ( 'NONE', ( #156, #9, #43, #167 ) ) ;
#29 = EDGE_LOOP ( 'NONE', ( #187, #114, #141, #87 ) ) ;
#30 = EDGE_LOOP ( 'NONE', ( #75, #11, #88, #10 ) ) ;
#31 = PLANE ( 'NONE',  #106 ) ;
#32 = PLANE ( 'NONE',  #170 ) ;
#33 = DIRECTION ( 'NONE',  ( 0.000000000000000000, 0.000000000000000000, -1.000000000000000000 ) ) ;
#34 = VECTOR ( 'NONE', #103, 1000.000000000000000 ) ;
#35 = DIRECTION ( 'NONE',  ( -0.000000000000000000, -1.000000000000000000, -0.000000000000000000 ) ) ;
#36 = LINE ( 'NONE', #104, #27 ) ;
#37 = PLANE ( 'NONE',  #49 ) ;
#38 = DIRECTION ( 'NONE',  ( -1.000000000000000000, 0.000000000000000000, -0.000000000000000000 ) ) ;
#39 = MANIFOLD_SOLID_BREP ( 'Boss-Extrude1', #186 ) ;
#40 =( NAMED_UNIT ( * ) SI_UNIT ( $, .STERADIAN. ) SOLID_ANGLE_UNIT ( ) );
#41 = ORIENTED_EDGE ( 'NONE', *, *, #53, .F. ) ;
#42 = VECTOR ( 'NONE', #150, 1000.000000000000000 ) ;
#43 = ORIENTED_EDGE ( 'NONE', *, *, #90, .F. ) ;
#44 = CARTESIAN_POINT ( 'NONE',  ( -250.0000000000002274, -0.6500000000000000222, 25.00000000000000000 ) ) ;
#45 = SURFACE_STYLE_FILL_AREA ( #89 ) ;
#46 = SURFACE_SIDE_STYLE ('',( #45 ) ) ;
#47 = EDGE_CURVE ( 'NONE', #157, #84, #162, .T. ) ;
#48 =( LENGTH_UNIT ( ) NAMED_UNIT ( * ) SI_UNIT ( .MILLI., .METRE. ) );
#49 = AXIS2_PLACEMENT_3D ( 'NONE', #182, #120, #137 ) ;
#50 = CARTESIAN_POINT ( 'NONE',  ( -250.0000000000002274, -0.6500000000000000222, 25.00000000000000000 ) ) ;
#51 = DIRECTION ( 'NONE',  ( 0.000000000000000000, 0.000000000000000000, -1.000000000000000000 ) ) ;
#52 = MECHANICAL_DESIGN_GEOMETRIC_PRESENTATION_REPRESENTATION (  '', ( #93 ), #180 ) ;
#53 = EDGE_CURVE ( 'NONE', #140, #157, #20, .T. ) ;
#54 =( LENGTH_UNIT ( ) NAMED_UNIT ( * ) SI_UNIT ( .MILLI., .METRE. ) );
#55 = AXIS2_PLACEMENT_3D ( 'NONE', #165, #111, #6 ) ;
#56 = EDGE_CURVE ( 'NONE', #126, #102, #1, .T. ) ;
#57 = ORIENTED_EDGE ( 'NONE', *, *, #115, .T. ) ;
#58 = ORIENTED_EDGE ( 'NONE', *, *, #64, .T. ) ;
#59 = APPLICATION_CONTEXT ( 'automotive_design' ) ;
#60 = PRESENTATION_STYLE_ASSIGNMENT (( #105 ) ) ;
#61 = LINE ( 'NONE', #92, #112 ) ;
#62 = UNCERTAINTY_MEASURE_WITH_UNIT (LENGTH_MEASURE( 1.000000000000000082E-05 ), #54, 'distance_accuracy_value', 'NONE');
#63 = CARTESIAN_POINT ( 'NONE',  ( -250.0000000000002274, 0.6500000000000000222, 25.00000000000000000 ) ) ;
#64 = EDGE_CURVE ( 'NONE', #185, #184, #161, .T. ) ;
#65 = PLANE ( 'NONE',  #86 ) ;
#66 = VECTOR ( 'NONE', #76, 1000.000000000000000 ) ;
#67 = SHAPE_DEFINITION_REPRESENTATION ( #24, #154 ) ;
#68 = APPLICATION_PROTOCOL_DEFINITION ( 'draft international standard', 'automotive_design', 1998, #59 ) ;
#69 = FACE_OUTER_BOUND ( 'NONE', #142, .T. ) ;
#70 = COLOUR_RGB ( '',0.7921568627450980005, 0.8196078431372548767, 0.9333333333333333481 ) ;
#71 = LINE ( 'NONE', #123, #42 ) ;
#72 = EDGE_CURVE ( 'NONE', #183, #140, #16, .T. ) ;
#73 = EDGE_LOOP ( 'NONE', ( #99, #168, #125, #100 ) ) ;
#74 = VECTOR ( 'NONE', #117, 1000.000000000000000 ) ;
#75 = ORIENTED_EDGE ( 'NONE', *, *, #53, .T. ) ;
#76 = DIRECTION ( 'NONE',  ( 1.000000000000000000, 0.000000000000000000, 0.000000000000000000 ) ) ;
#77 = DIRECTION ( 'NONE',  ( -0.000000000000000000, -1.000000000000000000, -0.000000000000000000 ) ) ;
#78 = CARTESIAN_POINT ( 'NONE',  ( -250.0000000000002274, 0.6500000000000000222, -25.00000000000000000 ) ) ;
#79 = PRODUCT_CONTEXT ( 'NONE', #163, 'mechanical' ) ;
#80 = ADVANCED_FACE ( 'NONE', ( #133 ), #65, .F. ) ;
#81 = VECTOR ( 'NONE', #35, 1000.000000000000000 ) ;
#82 = FACE_OUTER_BOUND ( 'NONE', #30, .T. ) ;
#83 =( NAMED_UNIT ( * ) PLANE_ANGLE_UNIT ( ) SI_UNIT ( $, .RADIAN. ) );
#84 = VERTEX_POINT ( 'NONE', #143 ) ;
#85 = CARTESIAN_POINT ( 'NONE',  ( -250.0000000000002274, 0.6500000000000000222, 25.00000000000000000 ) ) ;
#86 = AXIS2_PLACEMENT_3D ( 'NONE', #119, #158, #4 ) ;
#87 = ORIENTED_EDGE ( 'NONE', *, *, #147, .T. ) ;
#88 = ORIENTED_EDGE ( 'NONE', *, *, #56, .F. ) ;
#89 = FILL_AREA_STYLE ('',( #129 ) ) ;
#90 = EDGE_CURVE ( 'NONE', #102, #185, #36, .T. ) ;
#91 = CARTESIAN_POINT ( 'NONE',  ( 0.000000000000000000, 0.6500000000000000222, 0.000000000000000000 ) ) ;
#92 = CARTESIAN_POINT ( 'NONE',  ( -250.0000000000002274, 0.6500000000000000222, 25.00000000000000000 ) ) ;
#93 = STYLED_ITEM ( 'NONE', ( #60 ), #39 ) ;
#94 = FACE_OUTER_BOUND ( 'NONE', #29, .T. ) ;
#95 = CARTESIAN_POINT ( 'NONE',  ( 0.000000000000000000, 0.000000000000000000, 0.000000000000000000 ) ) ;
#96 = CARTESIAN_POINT ( 'NONE',  ( 249.9999999999997726, -0.6500000000000000222, 25.00000000000000000 ) ) ;
#97 = AXIS2_PLACEMENT_3D ( 'NONE', #139, #51, #38 ) ;
#98 = ORIENTED_EDGE ( 'NONE', *, *, #47, .F. ) ;
#99 = ORIENTED_EDGE ( 'NONE', *, *, #72, .T. ) ;
#100 = ORIENTED_EDGE ( 'NONE', *, *, #19, .T. ) ;
#101 = ORIENTED_EDGE ( 'NONE', *, *, #72, .F. ) ;
#102 = VERTEX_POINT ( 'NONE', #130 ) ;
#103 = DIRECTION ( 'NONE',  ( 1.000000000000000000, 0.000000000000000000, 0.000000000000000000 ) ) ;
#104 = CARTESIAN_POINT ( 'NONE',  ( 249.9999999999997726, 0.6500000000000000222, 25.00000000000000000 ) ) ;
#105 = SURFACE_STYLE_USAGE ( .BOTH. , #46 ) ;
#106 = AXIS2_PLACEMENT_3D ( 'NONE', #132, #146, #145 ) ;
#107 =( NAMED_UNIT ( * ) PLANE_ANGLE_UNIT ( ) SI_UNIT ( $, .RADIAN. ) );
#108 = DIRECTION ( 'NONE',  ( 1.000000000000000000, 0.000000000000000000, 0.000000000000000000 ) ) ;
#109 = CARTESIAN_POINT ( 'NONE',  ( 249.9999999999997726, 0.6500000000000000222, -25.00000000000000000 ) ) ;
#110 = FACE_OUTER_BOUND ( 'NONE', #73, .T. ) ;
#111 = DIRECTION ( 'NONE',  ( 0.000000000000000000, -1.000000000000000000, 0.000000000000000000 ) ) ;
#112 = VECTOR ( 'NONE', #116, 1000.000000000000000 ) ;
#113 = ORIENTED_EDGE ( 'NONE', *, *, #90, .T. ) ;
#114 = ORIENTED_EDGE ( 'NONE', *, *, #19, .F. ) ;
#115 = EDGE_CURVE ( 'NONE', #184, #126, #61, .T. ) ;
#116 = DIRECTION ( 'NONE',  ( -0.000000000000000000, -0.000000000000000000, 1.000000000000000000 ) ) ;
#117 = DIRECTION ( 'NONE',  ( 0.000000000000000000, 0.000000000000000000, -1.000000000000000000 ) ) ;
#118 = DIRECTION ( 'NONE',  ( -0.000000000000000000, -0.000000000000000000, 1.000000000000000000 ) ) ;
#119 = CARTESIAN_POINT ( 'NONE',  ( 249.9999999999997726, 0.6500000000000000222, 25.00000000000000000 ) ) ;
#120 = DIRECTION ( 'NONE',  ( 1.000000000000000000, -0.000000000000000000, 0.000000000000000000 ) ) ;
#121 = ADVANCED_FACE ( 'NONE', ( #177 ), #32, .F. ) ;
#122 = CARTESIAN_POINT ( 'NONE',  ( 249.9999999999997726, 0.6500000000000000222, 25.00000000000000000 ) ) ;
#123 = CARTESIAN_POINT ( 'NONE',  ( -250.0000000000002274, -0.6500000000000000222, -25.00000000000000000 ) ) ;
#124 = EDGE_CURVE ( 'NONE', #102, #157, #179, .T. ) ;
#125 = ORIENTED_EDGE ( 'NONE', *, *, #115, .F. ) ;
#126 = VERTEX_POINT ( 'NONE', #85 ) ;
#127 = ADVANCED_FACE ( 'NONE', ( #69 ), #148, .T. ) ;
#128 = PRODUCT_RELATED_PRODUCT_CATEGORY ( 'part', '', ( #138 ) ) ;
#129 = FILL_AREA_STYLE_COLOUR ( '', #70 ) ;
#130 = CARTESIAN_POINT ( 'NONE',  ( 249.9999999999997726, 0.6500000000000000222, 25.00000000000000000 ) ) ;
#131 = DIRECTION ( 'NONE',  ( 0.000000000000000000, -1.000000000000000000, 0.000000000000000000 ) ) ;
#132 = CARTESIAN_POINT ( 'NONE',  ( -250.0000000000002274, 0.6500000000000000222, -25.00000000000000000 ) ) ;
#133 = FACE_OUTER_BOUND ( 'NONE', #28, .T. ) ;
#134 = DIRECTION ( 'NONE',  ( -0.000000000000000000, -1.000000000000000000, -0.000000000000000000 ) ) ;
#135 = PRESENTATION_LAYER_ASSIGNMENT (  '', '', ( #93 ) ) ;
#136 = DIRECTION ( 'NONE',  ( -0.000000000000000000, -1.000000000000000000, -0.000000000000000000 ) ) ;
#137 = DIRECTION ( 'NONE',  ( 0.000000000000000000, 0.000000000000000000, -1.000000000000000000 ) ) ;
#138 = PRODUCT ( '05729 - Webbing Strap Black 50mm', '05729 - Webbing Strap Black 50mm', '', ( #79 ) ) ;
#139 = CARTESIAN_POINT ( 'NONE',  ( -250.0000000000002274, 0.6500000000000000222, 25.00000000000000000 ) ) ;
#140 = VERTEX_POINT ( 'NONE', #21 ) ;
#141 = ORIENTED_EDGE ( 'NONE', *, *, #64, .F. ) ;
#142 = EDGE_LOOP ( 'NONE', ( #98, #41, #101, #153 ) ) ;
#143 = CARTESIAN_POINT ( 'NONE',  ( 249.9999999999997726, -0.6500000000000000222, -25.00000000000000000 ) ) ;
#144 = ADVANCED_FACE ( 'NONE', ( #82 ), #166, .F. ) ;
#145 = DIRECTION ( 'NONE',  ( 1.000000000000000000, 0.000000000000000000, -0.000000000000000000 ) ) ;
#146 = DIRECTION ( 'NONE',  ( 0.000000000000000000, 0.000000000000000000, 1.000000000000000000 ) ) ;
#147 = EDGE_CURVE ( 'NONE', #185, #84, #25, .T. ) ;
#148 = PLANE ( 'NONE',  #55 ) ;
#149 = VECTOR ( 'NONE', #13, 1000.000000000000000 ) ;
#150 = DIRECTION ( 'NONE',  ( -1.000000000000000000, -0.000000000000000000, -0.000000000000000000 ) ) ;
#151 = DIRECTION ( 'NONE',  ( 0.000000000000000000, 0.000000000000000000, 1.000000000000000000 ) ) ;
#152 = CARTESIAN_POINT ( 'NONE',  ( -250.0000000000002274, -0.6500000000000000222, -25.00000000000000000 ) ) ;
#153 = ORIENTED_EDGE ( 'NONE', *, *, #155, .F. ) ;
#154 = ADVANCED_BREP_SHAPE_REPRESENTATION ( '05729 - Webbing Strap Black 50mm', ( #39, #174 ), #159 ) ;
#155 = EDGE_CURVE ( 'NONE', #84, #183, #71, .T. ) ;
#156 = ORIENTED_EDGE ( 'NONE', *, *, #47, .T. ) ;
#157 = VERTEX_POINT ( 'NONE', #96 ) ;
#158 = DIRECTION ( 'NONE',  ( -1.000000000000000000, 0.000000000000000000, 0.000000000000000000 ) ) ;
#159 =( GEOMETRIC_REPRESENTATION_CONTEXT ( 3 ) GLOBAL_UNCERTAINTY_ASSIGNED_CONTEXT ( ( #62 ) ) GLOBAL_UNIT_ASSIGNED_CONTEXT ( ( #54, #83, #40 ) ) REPRESENTATION_CONTEXT ( 'NONE', 'WORKASPACE' ) );
#160 =( NAMED_UNIT ( * ) SI_UNIT ( $, .STERADIAN. ) SOLID_ANGLE_UNIT ( ) );
#161 = LINE ( 'NONE', #78, #149 ) ;
#162 = LINE ( 'NONE', #173, #74 ) ;
#163 = APPLICATION_CONTEXT ( 'automotive_design' ) ;
#164 = CARTESIAN_POINT ( 'NONE',  ( -250.0000000000002274, 0.6500000000000000222, -25.00000000000000000 ) ) ;
#165 = CARTESIAN_POINT ( 'NONE',  ( 0.000000000000000000, -0.6500000000000000222, 0.000000000000000000 ) ) ;
#166 = PLANE ( 'NONE',  #97 ) ;
#167 = ORIENTED_EDGE ( 'NONE', *, *, #124, .T. ) ;
#168 = ORIENTED_EDGE ( 'NONE', *, *, #12, .F. ) ;
#169 = VECTOR ( 'NONE', #77, 1000.000000000000000 ) ;
#170 = AXIS2_PLACEMENT_3D ( 'NONE', #91, #131, #2 ) ;
#171 = ORIENTED_EDGE ( 'NONE', *, *, #56, .T. ) ;
#172 = EDGE_LOOP ( 'NONE', ( #113, #58, #57, #171 ) ) ;
#173 = CARTESIAN_POINT ( 'NONE',  ( 249.9999999999997726, -0.6500000000000000222, 25.00000000000000000 ) ) ;
#174 = AXIS2_PLACEMENT_3D ( 'NONE', #95, #151, #108 ) ;
#175 = PRODUCT_DEFINITION_CONTEXT ( 'detailed design', #59, 'design' ) ;
#176 = LINE ( 'NONE', #63, #169 ) ;
#177 = FACE_OUTER_BOUND ( 'NONE', #172, .T. ) ;
#178 = LINE ( 'NONE', #15, #81 ) ;
#179 = LINE ( 'NONE', #122, #3 ) ;
#180 =( GEOMETRIC_REPRESENTATION_CONTEXT ( 3 ) GLOBAL_UNCERTAINTY_ASSIGNED_CONTEXT ( ( #14 ) ) GLOBAL_UNIT_ASSIGNED_CONTEXT ( ( #48, #107, #160 ) ) REPRESENTATION_CONTEXT ( 'NONE', 'WORKASPACE' ) );
#181 = ADVANCED_FACE ( 'NONE', ( #110 ), #37, .F. ) ;
#182 = CARTESIAN_POINT ( 'NONE',  ( -250.0000000000002274, 0.6500000000000000222, 25.00000000000000000 ) ) ;
#183 = VERTEX_POINT ( 'NONE', #152 ) ;
#184 = VERTEX_POINT ( 'NONE', #164 ) ;
#185 = VERTEX_POINT ( 'NONE', #8 ) ;
#186 = CLOSED_SHELL ( 'NONE', ( #80, #5, #181, #144, #121, #127 ) ) ;
#187 = ORIENTED_EDGE ( 'NONE', *, *, #155, .T. ) ;
ENDSEC;
END-ISO-10303-21;
