ISO-10303-21;
HEADER;
FILE_DESCRIPTION (( 'STEP AP214' ),
    '1' );
FILE_NAME ('70372 Nut Cover Polyethylene White 12.8mm M8.STEP',
    '2025-07-07T01:56:16',
    ( '' ),
    ( '' ),
    'SwSTEP 2.0',
    'SolidWorks 2025',
    '' );
FILE_SCHEMA (( 'AUTOMOTIVE_DESIGN' ));
ENDSEC;

DATA;
#1 = FACE_BOUND ( 'NONE', #196, .T. ) ;
#2 = CARTESIAN_POINT ( 'NONE',  ( -8.250000000000000000, 8.500000000000000000, 1.010333609296566550E-15 ) ) ;
#3 = CLOSED_SHELL ( 'NONE', ( #112, #213, #50, #152, #364, #182, #146, #371, #252, #168, #83, #55, #89 ) ) ;
#4 = CARTESIAN_POINT ( 'NONE',  ( 0.000000000000000000, 8.699999999999999289, 0.000000000000000000 ) ) ;
#5 = CARTESIAN_POINT ( 'NONE',  ( 0.000000000000000000, 8.499999999999998224, 0.000000000000000000 ) ) ;
#6 = CARTESIAN_POINT ( 'NONE',  ( 0.000000000000000000, 8.500000000000000000, 0.000000000000000000 ) ) ;
#7 = AXIS2_PLACEMENT_3D ( 'NONE', #253, #340, #321 ) ;
#8 = CARTESIAN_POINT ( 'NONE',  ( -6.349999999999995204, 1.836970198721029688E-16, 3.666174209354126745 ) ) ;
#9 = DIRECTION ( 'NONE',  ( -0.000000000000000000, -1.000000000000000000, -0.000000000000000000 ) ) ;
#10 = ORIENTED_EDGE ( 'NONE', *, *, #161, .F. ) ;
#11 = ORIENTED_EDGE ( 'NONE', *, *, #124, .T. ) ;
#12 = AXIS2_PLACEMENT_3D ( 'NONE', #386, #287, #18 ) ;
#13 = AXIS2_PLACEMENT_3D ( 'NONE', #361, #388, #26 ) ;
#14 = CARTESIAN_POINT ( 'NONE',  ( 0.000000000000000000, 8.500000000000000000, -9.500000000000000000 ) ) ;
#15 = LINE ( 'NONE', #24, #306 ) ;
#16 = ORIENTED_EDGE ( 'NONE', *, *, #41, .T. ) ;
#17 = EDGE_CURVE ( 'NONE', #341, #56, #362, .T. ) ;
#18 = DIRECTION ( 'NONE',  ( 0.000000000000000000, 0.000000000000000000, -1.000000000000000000 ) ) ;
#19 = ORIENTED_EDGE ( 'NONE', *, *, #187, .F. ) ;
#20 = VECTOR ( 'NONE', #244, 1000.000000000000000 ) ;
#21 =( GEOMETRIC_REPRESENTATION_CONTEXT ( 3 ) GLOBAL_UNCERTAINTY_ASSIGNED_CONTEXT ( ( #38 ) ) GLOBAL_UNIT_ASSIGNED_CONTEXT ( ( #177, #31, #144 ) ) REPRESENTATION_CONTEXT ( 'NONE', 'WORKASPACE' ) );
#22 = DIRECTION ( 'NONE',  ( -0.8660254037844389297, 0.000000000000000000, -0.4999999999999995559 ) ) ;
#23 = ORIENTED_EDGE ( 'NONE', *, *, #288, .T. ) ;
#24 = CARTESIAN_POINT ( 'NONE',  ( 6.349999999999997868, 8.699999999999999289, 3.666174209354120972 ) ) ;
#25 = EDGE_LOOP ( 'NONE', ( #49, #23 ) ) ;
#26 = DIRECTION ( 'NONE',  ( 0.8660254037844383745, 0.000000000000000000, -0.5000000000000003331 ) ) ;
#27 = ORIENTED_EDGE ( 'NONE', *, *, #281, .T. ) ;
#28 = DIRECTION ( 'NONE',  ( 1.000000000000000000, 0.000000000000000000, 0.000000000000000000 ) ) ;
#29 = DIRECTION ( 'NONE',  ( -0.8660254037844385966, 0.000000000000000000, 0.5000000000000001110 ) ) ;
#30 = EDGE_LOOP ( 'NONE', ( #318, #299, #176, #269 ) ) ;
#31 =( NAMED_UNIT ( * ) PLANE_ANGLE_UNIT ( ) SI_UNIT ( $, .RADIAN. ) );
#32 = ORIENTED_EDGE ( 'NONE', *, *, #201, .F. ) ;
#33 = VECTOR ( 'NONE', #73, 1000.000000000000000 ) ;
#34 = CARTESIAN_POINT ( 'NONE',  ( 6.349999999999996092, 0.000000000000000000, -3.666174209354124969 ) ) ;
#35 = LINE ( 'NONE', #327, #76 ) ;
#36 = SPHERICAL_SURFACE ( 'NONE', #139, 8.250000000000000000 ) ;
#37 = DIRECTION ( 'NONE',  ( 0.000000000000000000, 0.000000000000000000, -1.000000000000000000 ) ) ;
#38 = UNCERTAINTY_MEASURE_WITH_UNIT (LENGTH_MEASURE( 1.000000000000000082E-05 ), #177, 'distance_accuracy_value', 'NONE');
#39 = CYLINDRICAL_SURFACE ( 'NONE', #314, 9.500000000000000000 ) ;
#40 = ORIENTED_EDGE ( 'NONE', *, *, #245, .F. ) ;
#41 = EDGE_CURVE ( 'NONE', #377, #235, #149, .T. ) ;
#42 = FACE_OUTER_BOUND ( 'NONE', #47, .T. ) ;
#43 = LINE ( 'NONE', #194, #132 ) ;
#44 = CIRCLE ( 'NONE', #322, 9.500000000000000000 ) ;
#45 = CARTESIAN_POINT ( 'NONE',  ( 1.084202172485505223E-15, 0.000000000000000000, -7.332348418708241944 ) ) ;
#46 = EDGE_CURVE ( 'NONE', #296, #377, #118, .T. ) ;
#47 = EDGE_LOOP ( 'NONE', ( #19, #78, #69 ) ) ;
#48 = LINE ( 'NONE', #197, #85 ) ;
#49 = ORIENTED_EDGE ( 'NONE', *, *, #222, .T. ) ;
#50 = ADVANCED_FACE ( 'NONE', ( #1, #88 ), #238, .T. ) ;
#51 = CARTESIAN_POINT ( 'NONE',  ( 3.903127820947815962E-15, 8.699999999999999289, 7.332348418708244608 ) ) ;
#52 = VERTEX_POINT ( 'NONE', #305 ) ;
#53 = CARTESIAN_POINT ( 'NONE',  ( -6.349999999999995204, 0.000000000000000000, -3.666174209354119640 ) ) ;
#54 = ORIENTED_EDGE ( 'NONE', *, *, #222, .F. ) ;
#55 = ADVANCED_FACE ( 'NONE', ( #326 ), #360, .F. ) ;
#56 = VERTEX_POINT ( 'NONE', #241 ) ;
#57 = PRODUCT_DEFINITION ( 'UNKNOWN', '', #286, #216 ) ;
#58 = DIRECTION ( 'NONE',  ( 0.000000000000000000, 0.000000000000000000, 1.000000000000000000 ) ) ;
#59 = CARTESIAN_POINT ( 'NONE',  ( 1.084202172485505223E-15, 8.699999999999999289, -7.332348418708241944 ) ) ;
#60 = VECTOR ( 'NONE', #232, 1000.000000000000227 ) ;
#61 = ORIENTED_EDGE ( 'NONE', *, *, #226, .F. ) ;
#62 = PLANE ( 'NONE',  #13 ) ;
#63 = DIRECTION ( 'NONE',  ( 1.182924880895401264E-16, 0.000000000000000000, 1.000000000000000000 ) ) ;
#64 = CIRCLE ( 'NONE', #285, 9.500000000000000000 ) ;
#65 = EDGE_LOOP ( 'NONE', ( #312, #358 ) ) ;
#66 = DIRECTION ( 'NONE',  ( 0.8660254037844389297, 0.000000000000000000, 0.4999999999999996114 ) ) ;
#67 = PLANE ( 'NONE',  #126 ) ;
#68 = DIRECTION ( 'NONE',  ( 0.8660254037844388186, 0.000000000000000000, 0.4999999999999996114 ) ) ;
#69 = ORIENTED_EDGE ( 'NONE', *, *, #278, .F. ) ;
#70 = AXIS2_PLACEMENT_3D ( 'NONE', #223, #131, #215 ) ;
#71 = EDGE_CURVE ( 'NONE', #363, #341, #35, .T. ) ;
#72 = CARTESIAN_POINT ( 'NONE',  ( 1.163414459189985485E-15, -1.305627926636702130, 9.500000000000000000 ) ) ;
#73 = DIRECTION ( 'NONE',  ( -0.000000000000000000, -1.000000000000000000, -0.000000000000000000 ) ) ;
#74 = CARTESIAN_POINT ( 'NONE',  ( 3.903127820947815962E-15, 0.000000000000000000, 7.332348418708244608 ) ) ;
#75 = ORIENTED_EDGE ( 'NONE', *, *, #368, .F. ) ;
#76 = VECTOR ( 'NONE', #276, 999.9999999999998863 ) ;
#77 = CARTESIAN_POINT ( 'NONE',  ( -6.349999999999994316, 8.699999999999999289, 3.666174209354126745 ) ) ;
#78 = ORIENTED_EDGE ( 'NONE', *, *, #226, .T. ) ;
#79 = DIRECTION ( 'NONE',  ( 0.000000000000000000, 1.000000000000000000, 0.000000000000000000 ) ) ;
#80 = VERTEX_POINT ( 'NONE', #90 ) ;
#81 = CARTESIAN_POINT ( 'NONE',  ( 6.349999999999997868, 8.699999999999999289, 3.666174209354120972 ) ) ;
#82 = EDGE_LOOP ( 'NONE', ( #198, #32, #143, #231 ) ) ;
#83 = ADVANCED_FACE ( 'NONE', ( #178 ), #123, .F. ) ;
#84 = AXIS2_PLACEMENT_3D ( 'NONE', #202, #111, #345 ) ;
#85 = VECTOR ( 'NONE', #259, 1000.000000000000000 ) ;
#86 = CARTESIAN_POINT ( 'NONE',  ( 3.903127820947815962E-15, 8.699999999999999289, 7.332348418708244608 ) ) ;
#87 = ORIENTED_EDGE ( 'NONE', *, *, #344, .T. ) ;
#88 = FACE_OUTER_BOUND ( 'NONE', #25, .T. ) ;
#89 = ADVANCED_FACE ( 'NONE', ( #148 ), #239, .T. ) ;
#90 = CARTESIAN_POINT ( 'NONE',  ( 8.250000000000000000, 8.500000000000000000, 0.000000000000000000 ) ) ;
#91 = LINE ( 'NONE', #122, #108 ) ;
#92 = FILL_AREA_STYLE ('',( #181 ) ) ;
#93 =( NAMED_UNIT ( * ) PLANE_ANGLE_UNIT ( ) SI_UNIT ( $, .RADIAN. ) );
#94 = EDGE_CURVE ( 'NONE', #203, #257, #91, .T. ) ;
#95 = CARTESIAN_POINT ( 'NONE',  ( -6.349999999999995204, 8.699999999999999289, -3.666174209354119640 ) ) ;
#96 = ORIENTED_EDGE ( 'NONE', *, *, #271, .F. ) ;
#97 = MANIFOLD_SOLID_BREP ( 'Cut-Extrude1', #3 ) ;
#98 = EDGE_CURVE ( 'NONE', #153, #173, #155, .T. ) ;
#99 = CARTESIAN_POINT ( 'NONE',  ( 1.084202172485505223E-15, 0.000000000000000000, -7.332348418708241944 ) ) ;
#100 = DIRECTION ( 'NONE',  ( 1.000000000000000000, 0.000000000000000000, 0.000000000000000000 ) ) ;
#101 = EDGE_LOOP ( 'NONE', ( #353, #260, #316, #136 ) ) ;
#102 =( GEOMETRIC_REPRESENTATION_CONTEXT ( 3 ) GLOBAL_UNCERTAINTY_ASSIGNED_CONTEXT ( ( #346 ) ) GLOBAL_UNIT_ASSIGNED_CONTEXT ( ( #365, #93, #307 ) ) REPRESENTATION_CONTEXT ( 'NONE', 'WORKASPACE' ) );
#103 = DIRECTION ( 'NONE',  ( 0.000000000000000000, 0.000000000000000000, -1.000000000000000000 ) ) ;
#104 = PLANE ( 'NONE',  #374 ) ;
#105 = EDGE_LOOP ( 'NONE', ( #350, #110, #75, #387 ) ) ;
#106 = LINE ( 'NONE', #292, #303 ) ;
#107 = VERTEX_POINT ( 'NONE', #2 ) ;
#108 = VECTOR ( 'NONE', #389, 1000.000000000000000 ) ;
#109 = PLANE ( 'NONE',  #186 ) ;
#110 = ORIENTED_EDGE ( 'NONE', *, *, #352, .F. ) ;
#111 = DIRECTION ( 'NONE',  ( 0.000000000000000000, 0.000000000000000000, -1.000000000000000000 ) ) ;
#112 = ADVANCED_FACE ( 'NONE', ( #313 ), #221, .T. ) ;
#113 = ORIENTED_EDGE ( 'NONE', *, *, #187, .T. ) ;
#114 = CARTESIAN_POINT ( 'NONE',  ( 0.000000000000000000, 4.336808689942017736E-16, 0.000000000000000000 ) ) ;
#115 = APPLICATION_CONTEXT ( 'automotive_design' ) ;
#116 = ORIENTED_EDGE ( 'NONE', *, *, #207, .T. ) ;
#117 = MECHANICAL_DESIGN_GEOMETRIC_PRESENTATION_REPRESENTATION (  '', ( #381 ), #102 ) ;
#118 = LINE ( 'NONE', #34, #20 ) ;
#119 = SURFACE_STYLE_FILL_AREA ( #92 ) ;
#120 = DIRECTION ( 'NONE',  ( 0.000000000000000000, -0.000000000000000000, -1.000000000000000000 ) ) ;
#121 = VECTOR ( 'NONE', #158, 1000.000000000000000 ) ;
#122 = CARTESIAN_POINT ( 'NONE',  ( -6.349999999999994316, 0.000000000000000000, 3.666174209354126745 ) ) ;
#123 = PLANE ( 'NONE',  #195 ) ;
#124 = EDGE_CURVE ( 'NONE', #229, #153, #204, .T. ) ;
#125 = DIRECTION ( 'NONE',  ( 1.224646799147353207E-16, -0.000000000000000000, 1.000000000000000000 ) ) ;
#126 = AXIS2_PLACEMENT_3D ( 'NONE', #311, #337, #188 ) ;
#127 = DIRECTION ( 'NONE',  ( -0.000000000000000000, -1.000000000000000000, -0.000000000000000000 ) ) ;
#128 = LINE ( 'NONE', #99, #171 ) ;
#129 = DIRECTION ( 'NONE',  ( 0.000000000000000000, 0.000000000000000000, -1.000000000000000000 ) ) ;
#130 = ORIENTED_EDGE ( 'NONE', *, *, #124, .F. ) ;
#131 = DIRECTION ( 'NONE',  ( 0.000000000000000000, 0.000000000000000000, 1.000000000000000000 ) ) ;
#132 = VECTOR ( 'NONE', #172, 1000.000000000000000 ) ;
#133 = EDGE_LOOP ( 'NONE', ( #130, #10 ) ) ;
#134 = CARTESIAN_POINT ( 'NONE',  ( -6.349999999999995204, 0.000000000000000000, -3.666174209354119640 ) ) ;
#135 = CARTESIAN_POINT ( 'NONE',  ( 1.084202172485505223E-15, 8.699999999999999289, -7.332348418708241944 ) ) ;
#136 = ORIENTED_EDGE ( 'NONE', *, *, #288, .F. ) ;
#137 = DIRECTION ( 'NONE',  ( -0.000000000000000000, -1.000000000000000000, -0.000000000000000000 ) ) ;
#138 = ORIENTED_EDGE ( 'NONE', *, *, #17, .F. ) ;
#139 = AXIS2_PLACEMENT_3D ( 'NONE', #5, #189, #100 ) ;
#140 = LINE ( 'NONE', #86, #163 ) ;
#141 = ORIENTED_EDGE ( 'NONE', *, *, #261, .T. ) ;
#142 = CARTESIAN_POINT ( 'NONE',  ( 5.051668046482832750E-16, 16.75000000000000000, 0.000000000000000000 ) ) ;
#143 = ORIENTED_EDGE ( 'NONE', *, *, #344, .F. ) ;
#144 =( NAMED_UNIT ( * ) SI_UNIT ( $, .STERADIAN. ) SOLID_ANGLE_UNIT ( ) );
#145 = ORIENTED_EDGE ( 'NONE', *, *, #207, .F. ) ;
#146 = ADVANCED_FACE ( 'NONE', ( #218 ), #336, .F. ) ;
#147 = PRODUCT_CONTEXT ( 'NONE', #115, 'mechanical' ) ;
#148 = FACE_OUTER_BOUND ( 'NONE', #170, .T. ) ;
#149 = LINE ( 'NONE', #274, #275 ) ;
#150 = ORIENTED_EDGE ( 'NONE', *, *, #175, .F. ) ;
#151 = AXIS2_PLACEMENT_3D ( 'NONE', #180, #330, #359 ) ;
#152 = ADVANCED_FACE ( 'NONE', ( #256 ), #282, .T. ) ;
#153 = VERTEX_POINT ( 'NONE', #280 ) ;
#154 = DIRECTION ( 'NONE',  ( 0.000000000000000000, 0.000000000000000000, -1.000000000000000000 ) ) ;
#155 = LINE ( 'NONE', #72, #339 ) ;
#156 = VECTOR ( 'NONE', #22, 1000.000000000000000 ) ;
#157 = AXIS2_PLACEMENT_3D ( 'NONE', #208, #304, #63 ) ;
#158 = DIRECTION ( 'NONE',  ( -0.000000000000000000, -1.000000000000000000, -0.000000000000000000 ) ) ;
#159 = CARTESIAN_POINT ( 'NONE',  ( 0.000000000000000000, -1.305627926636702130, 0.000000000000000000 ) ) ;
#160 = DIRECTION ( 'NONE',  ( -0.000000000000000000, -1.000000000000000000, -0.000000000000000000 ) ) ;
#161 = EDGE_CURVE ( 'NONE', #153, #229, #44, .T. ) ;
#162 = FACE_OUTER_BOUND ( 'NONE', #30, .T. ) ;
#163 = VECTOR ( 'NONE', #266, 1000.000000000000000 ) ;
#164 = DIRECTION ( 'NONE',  ( 2.365849761790802529E-16, 0.000000000000000000, 1.000000000000000000 ) ) ;
#165 = EDGE_LOOP ( 'NONE', ( #16, #370, #167, #141 ) ) ;
#166 = DIRECTION ( 'NONE',  ( -0.000000000000000000, -1.000000000000000000, -0.000000000000000000 ) ) ;
#167 = ORIENTED_EDGE ( 'NONE', *, *, #240, .F. ) ;
#168 = ADVANCED_FACE ( 'NONE', ( #343 ), #67, .F. ) ;
#169 = FACE_OUTER_BOUND ( 'NONE', #133, .T. ) ;
#170 = EDGE_LOOP ( 'NONE', ( #320, #87, #210, #283, #27, #380 ) ) ;
#171 = VECTOR ( 'NONE', #68, 1000.000000000000114 ) ;
#172 = DIRECTION ( 'NONE',  ( -0.8660254037844389297, 0.000000000000000000, -0.4999999999999995559 ) ) ;
#173 = VERTEX_POINT ( 'NONE', #369 ) ;
#174 = CARTESIAN_POINT ( 'NONE',  ( 0.000000000000000000, 4.336808689942017736E-16, -9.500000000000000000 ) ) ;
#175 = EDGE_CURVE ( 'NONE', #229, #385, #251, .T. ) ;
#176 = ORIENTED_EDGE ( 'NONE', *, *, #281, .F. ) ;
#177 =( LENGTH_UNIT ( ) NAMED_UNIT ( * ) SI_UNIT ( .MILLI., .METRE. ) );
#178 = FACE_OUTER_BOUND ( 'NONE', #334, .T. ) ;
#179 = AXIS2_PLACEMENT_3D ( 'NONE', #4, #272, #120 ) ;
#180 = CARTESIAN_POINT ( 'NONE',  ( 9.500000000000000000, 1.836970198721029688E-16, 0.000000000000000000 ) ) ;
#181 = FILL_AREA_STYLE_COLOUR ( '', #356 ) ;
#182 = ADVANCED_FACE ( 'NONE', ( #42 ), #36, .T. ) ;
#183 = PRODUCT_DEFINITION_SHAPE ( 'NONE', 'NONE',  #57 ) ;
#184 = SURFACE_STYLE_USAGE ( .BOTH. , #212 ) ;
#185 = CIRCLE ( 'NONE', #12, 8.250000000000000000 ) ;
#186 = AXIS2_PLACEMENT_3D ( 'NONE', #351, #79, #199 ) ;
#187 = EDGE_CURVE ( 'NONE', #250, #107, #190, .T. ) ;
#188 = DIRECTION ( 'NONE',  ( -0.8660254037844388186, 0.000000000000000000, -0.4999999999999996114 ) ) ;
#189 = DIRECTION ( 'NONE',  ( 0.000000000000000000, 0.000000000000000000, 1.000000000000000000 ) ) ;
#190 = CIRCLE ( 'NONE', #295, 8.250000000000000000 ) ;
#191 = FACE_OUTER_BOUND ( 'NONE', #217, .T. ) ;
#192 = CARTESIAN_POINT ( 'NONE',  ( 3.903127820947815962E-15, 8.699999999999999289, 7.332348418708244608 ) ) ;
#193 = EDGE_CURVE ( 'NONE', #80, #107, #254, .T. ) ;
#194 = CARTESIAN_POINT ( 'NONE',  ( 3.903127820947815962E-15, 0.000000000000000000, 7.332348418708244608 ) ) ;
#195 = AXIS2_PLACEMENT_3D ( 'NONE', #301, #214, #29 ) ;
#196 = EDGE_LOOP ( 'NONE', ( #96, #338, #383, #145, #40, #265 ) ) ;
#197 = CARTESIAN_POINT ( 'NONE',  ( 6.349999999999996092, 8.699999999999999289, -3.666174209354124969 ) ) ;
#198 = ORIENTED_EDGE ( 'NONE', *, *, #94, .T. ) ;
#199 = DIRECTION ( 'NONE',  ( 0.000000000000000000, -0.000000000000000000, 1.000000000000000000 ) ) ;
#200 = VERTEX_POINT ( 'NONE', #372 ) ;
#201 = EDGE_CURVE ( 'NONE', #363, #257, #366, .T. ) ;
#202 = CARTESIAN_POINT ( 'NONE',  ( 0.000000000000000000, 8.499999999999998224, 0.000000000000000000 ) ) ;
#203 = VERTEX_POINT ( 'NONE', #8 ) ;
#204 = CIRCLE ( 'NONE', #211, 9.500000000000000000 ) ;
#205 = CARTESIAN_POINT ( 'NONE',  ( 6.349999999999996092, 0.000000000000000000, -3.666174209354124969 ) ) ;
#206 = ORIENTED_EDGE ( 'NONE', *, *, #297, .F. ) ;
#207 = EDGE_CURVE ( 'NONE', #300, #296, #128, .T. ) ;
#208 = CARTESIAN_POINT ( 'NONE',  ( -6.349999999999994316, 8.699999999999999289, 3.666174209354126745 ) ) ;
#209 = CARTESIAN_POINT ( 'NONE',  ( 0.000000000000000000, 0.000000000000000000, 0.000000000000000000 ) ) ;
#210 = ORIENTED_EDGE ( 'NONE', *, *, #71, .T. ) ;
#211 = AXIS2_PLACEMENT_3D ( 'NONE', #6, #333, #154 ) ;
#212 = SURFACE_SIDE_STYLE ('',( #119 ) ) ;
#213 = ADVANCED_FACE ( 'NONE', ( #191 ), #39, .T. ) ;
#214 = DIRECTION ( 'NONE',  ( -0.5000000000000001110, 0.000000000000000000, -0.8660254037844385966 ) ) ;
#215 = DIRECTION ( 'NONE',  ( 1.000000000000000000, 0.000000000000000000, 0.000000000000000000 ) ) ;
#216 = PRODUCT_DEFINITION_CONTEXT ( 'detailed design', #279, 'design' ) ;
#217 = EDGE_LOOP ( 'NONE', ( #11, #263, #54, #150 ) ) ;
#218 = FACE_OUTER_BOUND ( 'NONE', #105, .T. ) ;
#219 = DIRECTION ( 'NONE',  ( -0.4999999999999996114, 0.000000000000000000, 0.8660254037844389297 ) ) ;
#220 = CIRCLE ( 'NONE', #84, 8.250000000000000000 ) ;
#221 = SPHERICAL_SURFACE ( 'NONE', #70, 8.250000000000000000 ) ;
#222 = EDGE_CURVE ( 'NONE', #385, #173, #348, .T. ) ;
#223 = CARTESIAN_POINT ( 'NONE',  ( 0.000000000000000000, 8.499999999999998224, 0.000000000000000000 ) ) ;
#224 = CARTESIAN_POINT ( 'NONE',  ( 6.349999999999996092, 8.699999999999999289, -3.666174209354124969 ) ) ;
#225 = VERTEX_POINT ( 'NONE', #81 ) ;
#226 = EDGE_CURVE ( 'NONE', #250, #80, #220, .T. ) ;
#227 = DIRECTION ( 'NONE',  ( -1.182924880895401264E-16, 0.000000000000000000, -1.000000000000000000 ) ) ;
#228 = VECTOR ( 'NONE', #354, 999.9999999999998863 ) ;
#229 = VERTEX_POINT ( 'NONE', #14 ) ;
#230 = DIRECTION ( 'NONE',  ( 1.000000000000000000, 0.000000000000000000, -2.365849761790802529E-16 ) ) ;
#231 = ORIENTED_EDGE ( 'NONE', *, *, #352, .T. ) ;
#232 = DIRECTION ( 'NONE',  ( -0.8660254037844383745, 0.000000000000000000, 0.5000000000000003331 ) ) ;
#233 = ORIENTED_EDGE ( 'NONE', *, *, #245, .T. ) ;
#234 = DIRECTION ( 'NONE',  ( -0.000000000000000000, -1.000000000000000000, -0.000000000000000000 ) ) ;
#235 = VERTEX_POINT ( 'NONE', #74 ) ;
#236 = VECTOR ( 'NONE', #164, 1000.000000000000000 ) ;
#237 = APPLICATION_PROTOCOL_DEFINITION ( 'draft international standard', 'automotive_design', 1998, #279 ) ;
#238 = PLANE ( 'NONE',  #151 ) ;
#239 = PLANE ( 'NONE',  #179 ) ;
#240 = EDGE_CURVE ( 'NONE', #225, #52, #262, .T. ) ;
#241 = CARTESIAN_POINT ( 'NONE',  ( 6.349999999999996092, 8.699999999999999289, -3.666174209354124969 ) ) ;
#242 = PRESENTATION_LAYER_ASSIGNMENT (  '', '', ( #381 ) ) ;
#243 = SHAPE_DEFINITION_REPRESENTATION ( #183, #258 ) ;
#244 = DIRECTION ( 'NONE',  ( 2.365849761790802529E-16, 0.000000000000000000, 1.000000000000000000 ) ) ;
#245 = EDGE_CURVE ( 'NONE', #257, #300, #317, .T. ) ;
#246 = DIRECTION ( 'NONE',  ( -0.000000000000000000, -1.000000000000000000, -0.000000000000000000 ) ) ;
#247 = AXIS2_PLACEMENT_3D ( 'NONE', #192, #219, #66 ) ;
#248 = VECTOR ( 'NONE', #166, 1000.000000000000000 ) ;
#249 = DIRECTION ( 'NONE',  ( 0.000000000000000000, 0.000000000000000000, -1.000000000000000000 ) ) ;
#250 = VERTEX_POINT ( 'NONE', #142 ) ;
#251 = LINE ( 'NONE', #308, #33 ) ;
#252 = ADVANCED_FACE ( 'NONE', ( #162 ), #104, .F. ) ;
#253 = CARTESIAN_POINT ( 'NONE',  ( 0.000000000000000000, 4.336808689942017736E-16, 0.000000000000000000 ) ) ;
#254 = CIRCLE ( 'NONE', #367, 8.250000000000000000 ) ;
#255 = VECTOR ( 'NONE', #331, 1000.000000000000114 ) ;
#256 = FACE_OUTER_BOUND ( 'NONE', #101, .T. ) ;
#257 = VERTEX_POINT ( 'NONE', #134 ) ;
#258 = ADVANCED_BREP_SHAPE_REPRESENTATION ( '70372 Nut Cover Polyethylene White 12.8mm M8', ( #97, #332 ), #21 ) ;
#259 = DIRECTION ( 'NONE',  ( -0.000000000000000000, -1.000000000000000000, -0.000000000000000000 ) ) ;
#260 = ORIENTED_EDGE ( 'NONE', *, *, #161, .T. ) ;
#261 = EDGE_CURVE ( 'NONE', #225, #377, #15, .T. ) ;
#262 = LINE ( 'NONE', #376, #60 ) ;
#263 = ORIENTED_EDGE ( 'NONE', *, *, #98, .T. ) ;
#264 = CARTESIAN_POINT ( 'NONE',  ( -6.349999999999995204, 8.699999999999999289, -3.666174209354119640 ) ) ;
#265 = ORIENTED_EDGE ( 'NONE', *, *, #94, .F. ) ;
#266 = DIRECTION ( 'NONE',  ( -0.000000000000000000, -1.000000000000000000, -0.000000000000000000 ) ) ;
#267 = ORIENTED_EDGE ( 'NONE', *, *, #335, .T. ) ;
#268 = DIRECTION ( 'NONE',  ( -0.000000000000000000, -1.000000000000000000, -0.000000000000000000 ) ) ;
#269 = ORIENTED_EDGE ( 'NONE', *, *, #297, .T. ) ;
#270 = CARTESIAN_POINT ( 'NONE',  ( 6.349999999999997868, 0.000000000000000000, 3.666174209354120972 ) ) ;
#271 = EDGE_CURVE ( 'NONE', #235, #203, #43, .T. ) ;
#272 = DIRECTION ( 'NONE',  ( 0.000000000000000000, -1.000000000000000000, 0.000000000000000000 ) ) ;
#273 = DIRECTION ( 'NONE',  ( -0.8660254037844383745, 0.000000000000000000, 0.5000000000000003331 ) ) ;
#274 = CARTESIAN_POINT ( 'NONE',  ( 6.349999999999997868, 0.000000000000000000, 3.666174209354120972 ) ) ;
#275 = VECTOR ( 'NONE', #273, 1000.000000000000227 ) ;
#276 = DIRECTION ( 'NONE',  ( 0.8660254037844385966, 0.000000000000000000, -0.5000000000000002220 ) ) ;
#277 = CARTESIAN_POINT ( 'NONE',  ( 0.000000000000000000, 8.499999999999998224, 0.000000000000000000 ) ) ;
#278 = EDGE_CURVE ( 'NONE', #107, #80, #185, .T. ) ;
#279 = APPLICATION_CONTEXT ( 'automotive_design' ) ;
#280 = CARTESIAN_POINT ( 'NONE',  ( 1.163414459189985485E-15, 8.500000000000000000, 9.500000000000000000 ) ) ;
#281 = EDGE_CURVE ( 'NONE', #56, #225, #298, .T. ) ;
#282 = CYLINDRICAL_SURFACE ( 'NONE', #302, 9.500000000000000000 ) ;
#283 = ORIENTED_EDGE ( 'NONE', *, *, #17, .T. ) ;
#284 = CARTESIAN_POINT ( 'NONE',  ( 0.000000000000000000, -1.305627926636702130, 0.000000000000000000 ) ) ;
#285 = AXIS2_PLACEMENT_3D ( 'NONE', #114, #234, #357 ) ;
#286 = PRODUCT_DEFINITION_FORMATION_WITH_SPECIFIED_SOURCE ( 'ANY', '', #342, .NOT_KNOWN. ) ;
#287 = DIRECTION ( 'NONE',  ( -0.000000000000000000, -1.000000000000000000, -0.000000000000000000 ) ) ;
#288 = EDGE_CURVE ( 'NONE', #173, #385, #64, .T. ) ;
#289 = LINE ( 'NONE', #135, #248 ) ;
#290 = EDGE_LOOP ( 'NONE', ( #116, #206, #138, #267 ) ) ;
#291 = EDGE_CURVE ( 'NONE', #52, #235, #140, .T. ) ;
#292 = CARTESIAN_POINT ( 'NONE',  ( -6.349999999999994316, 8.699999999999999289, 3.666174209354126745 ) ) ;
#293 = ORIENTED_EDGE ( 'NONE', *, *, #335, .F. ) ;
#294 = FACE_BOUND ( 'NONE', #65, .T. ) ;
#295 = AXIS2_PLACEMENT_3D ( 'NONE', #277, #125, #309 ) ;
#296 = VERTEX_POINT ( 'NONE', #205 ) ;
#297 = EDGE_CURVE ( 'NONE', #56, #296, #48, .T. ) ;
#298 = LINE ( 'NONE', #315, #236 ) ;
#299 = ORIENTED_EDGE ( 'NONE', *, *, #261, .F. ) ;
#300 = VERTEX_POINT ( 'NONE', #45 ) ;
#301 = CARTESIAN_POINT ( 'NONE',  ( -6.349999999999995204, 8.699999999999999289, -3.666174209354119640 ) ) ;
#302 = AXIS2_PLACEMENT_3D ( 'NONE', #284, #127, #249 ) ;
#303 = VECTOR ( 'NONE', #227, 1000.000000000000000 ) ;
#304 = DIRECTION ( 'NONE',  ( -1.000000000000000000, 0.000000000000000000, 1.182924880895401264E-16 ) ) ;
#305 = CARTESIAN_POINT ( 'NONE',  ( 3.903127820947815962E-15, 8.699999999999999289, 7.332348418708244608 ) ) ;
#306 = VECTOR ( 'NONE', #268, 1000.000000000000000 ) ;
#307 =( NAMED_UNIT ( * ) SI_UNIT ( $, .STERADIAN. ) SOLID_ANGLE_UNIT ( ) );
#308 = CARTESIAN_POINT ( 'NONE',  ( 0.000000000000000000, -1.305627926636702130, -9.500000000000000000 ) ) ;
#309 = DIRECTION ( 'NONE',  ( 1.000000000000000000, 0.000000000000000000, -1.224646799147353454E-16 ) ) ;
#310 = CARTESIAN_POINT ( 'NONE',  ( 0.000000000000000000, 8.500000000000000000, 0.000000000000000000 ) ) ;
#311 = CARTESIAN_POINT ( 'NONE',  ( 1.084202172485505223E-15, 8.699999999999999289, -7.332348418708241944 ) ) ;
#312 = ORIENTED_EDGE ( 'NONE', *, *, #193, .T. ) ;
#313 = FACE_OUTER_BOUND ( 'NONE', #347, .T. ) ;
#314 = AXIS2_PLACEMENT_3D ( 'NONE', #159, #9, #129 ) ;
#315 = CARTESIAN_POINT ( 'NONE',  ( 6.349999999999996092, 8.699999999999999289, -3.666174209354124969 ) ) ;
#316 = ORIENTED_EDGE ( 'NONE', *, *, #175, .T. ) ;
#317 = LINE ( 'NONE', #53, #228 ) ;
#318 = ORIENTED_EDGE ( 'NONE', *, *, #46, .T. ) ;
#319 = LINE ( 'NONE', #51, #156 ) ;
#320 = ORIENTED_EDGE ( 'NONE', *, *, #368, .T. ) ;
#321 = DIRECTION ( 'NONE',  ( 0.000000000000000000, 0.000000000000000000, -1.000000000000000000 ) ) ;
#322 = AXIS2_PLACEMENT_3D ( 'NONE', #373, #375, #103 ) ;
#323 = ORIENTED_EDGE ( 'NONE', *, *, #193, .F. ) ;
#324 = APPLICATION_PROTOCOL_DEFINITION ( 'draft international standard', 'automotive_design', 1998, #115 ) ;
#325 = ORIENTED_EDGE ( 'NONE', *, *, #71, .F. ) ;
#326 = FACE_OUTER_BOUND ( 'NONE', #82, .T. ) ;
#327 = CARTESIAN_POINT ( 'NONE',  ( -6.349999999999995204, 8.699999999999999289, -3.666174209354119640 ) ) ;
#328 = VECTOR ( 'NONE', #137, 1000.000000000000000 ) ;
#329 = PRESENTATION_STYLE_ASSIGNMENT (( #184 ) ) ;
#330 = DIRECTION ( 'NONE',  ( 0.000000000000000000, -1.000000000000000000, -0.000000000000000000 ) ) ;
#331 = DIRECTION ( 'NONE',  ( 0.8660254037844388186, 0.000000000000000000, 0.4999999999999996114 ) ) ;
#332 = AXIS2_PLACEMENT_3D ( 'NONE', #209, #58, #28 ) ;
#333 = DIRECTION ( 'NONE',  ( -0.000000000000000000, -1.000000000000000000, -0.000000000000000000 ) ) ;
#334 = EDGE_LOOP ( 'NONE', ( #233, #293, #325, #355 ) ) ;
#335 = EDGE_CURVE ( 'NONE', #341, #300, #289, .T. ) ;
#336 = PLANE ( 'NONE',  #247 ) ;
#337 = DIRECTION ( 'NONE',  ( 0.4999999999999996114, 0.000000000000000000, -0.8660254037844388186 ) ) ;
#338 = ORIENTED_EDGE ( 'NONE', *, *, #41, .F. ) ;
#339 = VECTOR ( 'NONE', #160, 1000.000000000000000 ) ;
#340 = DIRECTION ( 'NONE',  ( -0.000000000000000000, -1.000000000000000000, -0.000000000000000000 ) ) ;
#341 = VERTEX_POINT ( 'NONE', #379 ) ;
#342 = PRODUCT ( '70372 Nut Cover Polyethylene White 12.8mm M8', '70372 Nut Cover Polyethylene White 12.8mm M8', '', ( #147 ) ) ;
#343 = FACE_OUTER_BOUND ( 'NONE', #290, .T. ) ;
#344 = EDGE_CURVE ( 'NONE', #200, #363, #106, .T. ) ;
#345 = DIRECTION ( 'NONE',  ( -1.000000000000000000, 0.000000000000000000, 0.000000000000000000 ) ) ;
#346 = UNCERTAINTY_MEASURE_WITH_UNIT (LENGTH_MEASURE( 1.000000000000000082E-05 ), #365, 'distance_accuracy_value', 'NONE');
#347 = EDGE_LOOP ( 'NONE', ( #61, #113, #323 ) ) ;
#348 = CIRCLE ( 'NONE', #7, 9.500000000000000000 ) ;
#349 = LINE ( 'NONE', #77, #328 ) ;
#350 = ORIENTED_EDGE ( 'NONE', *, *, #271, .T. ) ;
#351 = CARTESIAN_POINT ( 'NONE',  ( 9.500000000000000000, 8.500000000000000000, 0.000000000000000000 ) ) ;
#352 = EDGE_CURVE ( 'NONE', #200, #203, #349, .T. ) ;
#353 = ORIENTED_EDGE ( 'NONE', *, *, #98, .F. ) ;
#354 = DIRECTION ( 'NONE',  ( 0.8660254037844385966, 0.000000000000000000, -0.5000000000000002220 ) ) ;
#355 = ORIENTED_EDGE ( 'NONE', *, *, #201, .T. ) ;
#356 = COLOUR_RGB ( '',0.7921568627450980005, 0.8196078431372548767, 0.9333333333333333481 ) ;
#357 = DIRECTION ( 'NONE',  ( 0.000000000000000000, 0.000000000000000000, -1.000000000000000000 ) ) ;
#358 = ORIENTED_EDGE ( 'NONE', *, *, #278, .T. ) ;
#359 = DIRECTION ( 'NONE',  ( 0.000000000000000000, 0.000000000000000000, -1.000000000000000000 ) ) ;
#360 = PLANE ( 'NONE',  #157 ) ;
#361 = CARTESIAN_POINT ( 'NONE',  ( 6.349999999999997868, 8.699999999999999289, 3.666174209354120972 ) ) ;
#362 = LINE ( 'NONE', #59, #255 ) ;
#363 = VERTEX_POINT ( 'NONE', #264 ) ;
#364 = ADVANCED_FACE ( 'NONE', ( #294, #169 ), #109, .T. ) ;
#365 =( LENGTH_UNIT ( ) NAMED_UNIT ( * ) SI_UNIT ( .MILLI., .METRE. ) );
#366 = LINE ( 'NONE', #95, #121 ) ;
#367 = AXIS2_PLACEMENT_3D ( 'NONE', #310, #246, #37 ) ;
#368 = EDGE_CURVE ( 'NONE', #52, #200, #319, .T. ) ;
#369 = CARTESIAN_POINT ( 'NONE',  ( 1.163414459189985485E-15, 4.336808689942017736E-16, 9.500000000000000000 ) ) ;
#370 = ORIENTED_EDGE ( 'NONE', *, *, #291, .F. ) ;
#371 = ADVANCED_FACE ( 'NONE', ( #384 ), #62, .F. ) ;
#372 = CARTESIAN_POINT ( 'NONE',  ( -6.349999999999994316, 8.699999999999999289, 3.666174209354126745 ) ) ;
#373 = CARTESIAN_POINT ( 'NONE',  ( 0.000000000000000000, 8.500000000000000000, 0.000000000000000000 ) ) ;
#374 = AXIS2_PLACEMENT_3D ( 'NONE', #224, #230, #382 ) ;
#375 = DIRECTION ( 'NONE',  ( -0.000000000000000000, -1.000000000000000000, -0.000000000000000000 ) ) ;
#376 = CARTESIAN_POINT ( 'NONE',  ( 6.349999999999997868, 8.699999999999999289, 3.666174209354120972 ) ) ;
#377 = VERTEX_POINT ( 'NONE', #270 ) ;
#378 = PRODUCT_RELATED_PRODUCT_CATEGORY ( 'part', '', ( #342 ) ) ;
#379 = CARTESIAN_POINT ( 'NONE',  ( 1.084202172485505223E-15, 8.699999999999999289, -7.332348418708241944 ) ) ;
#380 = ORIENTED_EDGE ( 'NONE', *, *, #240, .T. ) ;
#381 = STYLED_ITEM ( 'NONE', ( #329 ), #97 ) ;
#382 = DIRECTION ( 'NONE',  ( -2.365849761790802529E-16, 0.000000000000000000, -1.000000000000000000 ) ) ;
#383 = ORIENTED_EDGE ( 'NONE', *, *, #46, .F. ) ;
#384 = FACE_OUTER_BOUND ( 'NONE', #165, .T. ) ;
#385 = VERTEX_POINT ( 'NONE', #174 ) ;
#386 = CARTESIAN_POINT ( 'NONE',  ( 0.000000000000000000, 8.500000000000000000, 0.000000000000000000 ) ) ;
#387 = ORIENTED_EDGE ( 'NONE', *, *, #291, .T. ) ;
#388 = DIRECTION ( 'NONE',  ( 0.5000000000000004441, -0.000000000000000000, 0.8660254037844384856 ) ) ;
#389 = DIRECTION ( 'NONE',  ( -1.182924880895401264E-16, 0.000000000000000000, -1.000000000000000000 ) ) ;
ENDSEC;
END-ISO-10303-21;
