ISO-10303-21;
HEADER;
FILE_DESCRIPTION (( 'STEP AP214' ),
    '1' );
FILE_NAME ('71214 White Filler Strip Small 7.9mm x 6.9mm.STEP',
    '2025-07-07T01:45:22',
    ( '' ),
    ( '' ),
    'SwSTEP 2.0',
    'SolidWorks 2025',
    '' );
FILE_SCHEMA (( 'AUTOMOTIVE_DESIGN' ));
ENDSEC;

DATA;
#1 = ORIENTED_EDGE ( 'NONE', *, *, #379, .T. ) ;
#2 = CARTESIAN_POINT ( 'NONE',  ( 0.000000000000000000, 0.000000000000000000, 0.000000000000000000 ) ) ;
#3 = ORIENTED_EDGE ( 'NONE', *, *, #169, .F. ) ;
#4 = VERTEX_POINT ( 'NONE', #254 ) ;
#5 = FACE_OUTER_BOUND ( 'NONE', #269, .T. ) ;
#6 = ORIENTED_EDGE ( 'NONE', *, *, #327, .T. ) ;
#7 = SURFACE_STYLE_FILL_AREA ( #286 ) ;
#8 = AXIS2_PLACEMENT_3D ( 'NONE', #231, #104, #198 ) ;
#9 = DIRECTION ( 'NONE',  ( -0.000000000000000000, 0.000000000000000000, -1.000000000000000000 ) ) ;
#10 = CARTESIAN_POINT ( 'NONE',  ( -3.367942863857717573, 1.991353990557976239, 0.000000000000000000 ) ) ;
#11 = DIRECTION ( 'NONE',  ( 0.000000000000000000, 0.000000000000000000, 1.000000000000000000 ) ) ;
#12 = PRODUCT_DEFINITION ( 'UNKNOWN', '', #289, #361 ) ;
#13 = FACE_OUTER_BOUND ( 'NONE', #364, .T. ) ;
#14 = CIRCLE ( 'NONE', #242, 0.6800000000000000488 ) ;
#15 = LINE ( 'NONE', #84, #136 ) ;
#16 = ORIENTED_EDGE ( 'NONE', *, *, #70, .T. ) ;
#17 = EDGE_CURVE ( 'NONE', #243, #48, #328, .T. ) ;
#18 = ORIENTED_EDGE ( 'NONE', *, *, #314, .F. ) ;
#19 =( NAMED_UNIT ( * ) PLANE_ANGLE_UNIT ( ) SI_UNIT ( $, .RADIAN. ) );
#20 = ORIENTED_EDGE ( 'NONE', *, *, #375, .F. ) ;
#21 = CIRCLE ( 'NONE', #210, 0.2500000000000002220 ) ;
#22 = CARTESIAN_POINT ( 'NONE',  ( -3.962743041256712839, -3.166086482894162835, -99.99999999999998579 ) ) ;
#23 = ORIENTED_EDGE ( 'NONE', *, *, #142, .T. ) ;
#24 = DIRECTION ( 'NONE',  ( -0.000000000000000000, -0.000000000000000000, -1.000000000000000000 ) ) ;
#25 = ORIENTED_EDGE ( 'NONE', *, *, #161, .F. ) ;
#26 = EDGE_CURVE ( 'NONE', #362, #140, #128, .T. ) ;
#27 = PLANE ( 'NONE',  #163 ) ;
#28 = AXIS2_PLACEMENT_3D ( 'NONE', #222, #282, #220 ) ;
#29 = CARTESIAN_POINT ( 'NONE',  ( -3.749999999999999556, 1.078585518379533426, -99.99999999999998579 ) ) ;
#30 = DIRECTION ( 'NONE',  ( -1.000000000000000000, 0.000000000000000000, 0.000000000000000000 ) ) ;
#31 = APPLICATION_PROTOCOL_DEFINITION ( 'draft international standard', 'automotive_design', 1998, #54 ) ;
#32 = LINE ( 'NONE', #365, #158 ) ;
#33 = VECTOR ( 'NONE', #356, 1000.000000000000000 ) ;
#34 = PLANE ( 'NONE',  #188 ) ;
#35 = DIRECTION ( 'NONE',  ( 1.000000000000000000, 0.000000000000000000, 0.000000000000000000 ) ) ;
#36 = DIRECTION ( 'NONE',  ( 1.000000000000000000, 0.000000000000000000, 0.000000000000000000 ) ) ;
#37 = AXIS2_PLACEMENT_3D ( 'NONE', #323, #102, #103 ) ;
#38 = CARTESIAN_POINT ( 'NONE',  ( -3.762514296544511971, 0.8288989300693160311, 0.000000000000000000 ) ) ;
#39 = CARTESIAN_POINT ( 'NONE',  ( 3.400472101584090190, 1.312132488621428728, 0.000000000000000000 ) ) ;
#40 = CYLINDRICAL_SURFACE ( 'NONE', #344, 2.715000000000000746 ) ;
#41 = VECTOR ( 'NONE', #221, 1000.000000000000000 ) ;
#42 = CYLINDRICAL_SURFACE ( 'NONE', #335, 4.000000000000000000 ) ;
#43 = VECTOR ( 'NONE', #330, 1000.000000000000000 ) ;
#44 = DIRECTION ( 'NONE',  ( 1.000000000000000000, 0.000000000000000000, 0.000000000000000000 ) ) ;
#45 = ORIENTED_EDGE ( 'NONE', *, *, #17, .T. ) ;
#46 = EDGE_CURVE ( 'NONE', #362, #95, #32, .T. ) ;
#47 = CARTESIAN_POINT ( 'NONE',  ( 8.673617379884035472E-16, -2.621414481620468084, 0.000000000000000000 ) ) ;
#48 = VERTEX_POINT ( 'NONE', #89 ) ;
#49 = ORIENTED_EDGE ( 'NONE', *, *, #394, .T. ) ;
#50 = AXIS2_PLACEMENT_3D ( 'NONE', #160, #236, #266 ) ;
#51 = DIRECTION ( 'NONE',  ( -0.9988551499066895545, 0.04783711430348518145, 0.000000000000000000 ) ) ;
#52 = ORIENTED_EDGE ( 'NONE', *, *, #316, .T. ) ;
#53 = VERTEX_POINT ( 'NONE', #372 ) ;
#54 = APPLICATION_CONTEXT ( 'automotive_design' ) ;
#55 = ORIENTED_EDGE ( 'NONE', *, *, #375, .T. ) ;
#56 = DIRECTION ( 'NONE',  ( 1.000000000000000000, 0.000000000000000000, 0.000000000000000000 ) ) ;
#57 =( GEOMETRIC_REPRESENTATION_CONTEXT ( 3 ) GLOBAL_UNCERTAINTY_ASSIGNED_CONTEXT ( ( #125 ) ) GLOBAL_UNIT_ASSIGNED_CONTEXT ( ( #277, #96, #212 ) ) REPRESENTATION_CONTEXT ( 'NONE', 'WORKASPACE' ) );
#58 = EDGE_CURVE ( 'NONE', #53, #243, #200, .T. ) ;
#59 = PRESENTATION_LAYER_ASSIGNMENT (  '', '', ( #72 ) ) ;
#60 = CARTESIAN_POINT ( 'NONE',  ( 4.000000000000000000, 1.078585518379534314, -99.99999999999998579 ) ) ;
#61 = CARTESIAN_POINT ( 'NONE',  ( -3.749999999999999556, 1.078585518379533426, -99.99999999999998579 ) ) ;
#62 = CARTESIAN_POINT ( 'NONE',  ( 3.400472101584090190, 1.312132488621428728, -99.99999999999998579 ) ) ;
#63 = EDGE_CURVE ( 'NONE', #237, #140, #290, .T. ) ;
#64 = CARTESIAN_POINT ( 'NONE',  ( -3.738040721424127799, 1.328299305856206036, -99.99999999999998579 ) ) ;
#65 = AXIS2_PLACEMENT_3D ( 'NONE', #2, #124, #284 ) ;
#66 = VECTOR ( 'NONE', #226, 1000.000000000000114 ) ;
#67 = DIRECTION ( 'NONE',  ( 1.000000000000000000, 0.000000000000000000, 0.000000000000000000 ) ) ;
#68 = PRODUCT ( '71214 White Filler Strip Small 7.9mm x 6.9mm', '71214 White Filler Strip Small 7.9mm x 6.9mm', '', ( #219 ) ) ;
#69 = DIRECTION ( 'NONE',  ( -1.000000000000000000, 0.000000000000000000, 0.000000000000000000 ) ) ;
#70 = EDGE_CURVE ( 'NONE', #235, #214, #87, .T. ) ;
#71 = LINE ( 'NONE', #101, #66 ) ;
#72 = STYLED_ITEM ( 'NONE', ( #82 ), #260 ) ;
#73 = FACE_OUTER_BOUND ( 'NONE', #354, .T. ) ;
#74 = DIRECTION ( 'NONE',  ( 0.000000000000000000, 0.000000000000000000, 1.000000000000000000 ) ) ;
#75 = CARTESIAN_POINT ( 'NONE',  ( 3.962743041256714616, -3.166086482894161946, 0.000000000000000000 ) ) ;
#76 = DIRECTION ( 'NONE',  ( -1.000000000000000000, 0.000000000000000000, 0.000000000000000000 ) ) ;
#77 = AXIS2_PLACEMENT_3D ( 'NONE', #288, #259, #348 ) ;
#78 = ORIENTED_EDGE ( 'NONE', *, *, #218, .F. ) ;
#79 = DIRECTION ( 'NONE',  ( 1.000000000000000000, 0.000000000000000000, 0.000000000000000000 ) ) ;
#80 = ORIENTED_EDGE ( 'NONE', *, *, #169, .T. ) ;
#81 = EDGE_CURVE ( 'NONE', #235, #4, #187, .T. ) ;
#82 = PRESENTATION_STYLE_ASSIGNMENT (( #322 ) ) ;
#83 = ORIENTED_EDGE ( 'NONE', *, *, #183, .F. ) ;
#84 = CARTESIAN_POINT ( 'NONE',  ( 3.400472101584090190, 1.312132488621428728, -99.99999999999998579 ) ) ;
#85 = ORIENTED_EDGE ( 'NONE', *, *, #394, .F. ) ;
#86 = CIRCLE ( 'NONE', #137, 0.2500000000000002220 ) ;
#87 = CIRCLE ( 'NONE', #28, 2.715000000000000746 ) ;
#88 = EDGE_LOOP ( 'NONE', ( #213, #245, #401, #273 ) ) ;
#89 = CARTESIAN_POINT ( 'NONE',  ( 4.000000000000000000, 1.078585518379534314, -99.99999999999998579 ) ) ;
#90 = ADVANCED_FACE ( 'NONE', ( #215 ), #341, .T. ) ;
#91 = CARTESIAN_POINT ( 'NONE',  ( 3.367942863857718461, 1.991353990557977127, -99.99999999999998579 ) ) ;
#92 = CLOSED_SHELL ( 'NONE', ( #238, #164, #247, #105, #155, #166, #295, #257, #90, #120, #150, #228 ) ) ;
#93 = CARTESIAN_POINT ( 'NONE',  ( -2.693362260787541818, 1.905674296572309023, -99.99999999999998579 ) ) ;
#94 = DIRECTION ( 'NONE',  ( -1.000000000000000000, 0.000000000000000000, 0.000000000000000000 ) ) ;
#95 = VERTEX_POINT ( 'NONE', #62 ) ;
#96 =( NAMED_UNIT ( * ) PLANE_ANGLE_UNIT ( ) SI_UNIT ( $, .RADIAN. ) );
#97 = CARTESIAN_POINT ( 'NONE',  ( -3.738040721424127799, 1.328299305856206036, 0.000000000000000000 ) ) ;
#98 = DIRECTION ( 'NONE',  ( -0.000000000000000000, -0.000000000000000000, -1.000000000000000000 ) ) ;
#99 = CIRCLE ( 'NONE', #373, 4.000000000000000000 ) ;
#100 = AXIS2_PLACEMENT_3D ( 'NONE', #139, #115, #360 ) ;
#101 = CARTESIAN_POINT ( 'NONE',  ( 3.400472101584090190, 1.312132488621428950, 0.000000000000000000 ) ) ;
#102 = DIRECTION ( 'NONE',  ( 0.000000000000000000, 0.000000000000000000, 1.000000000000000000 ) ) ;
#103 = DIRECTION ( 'NONE',  ( 1.000000000000000000, 0.000000000000000000, 0.000000000000000000 ) ) ;
#104 = DIRECTION ( 'NONE',  ( 0.000000000000000000, 0.000000000000000000, 1.000000000000000000 ) ) ;
#105 = ADVANCED_FACE ( 'NONE', ( #5 ), #253, .F. ) ;
#106 = LINE ( 'NONE', #256, #383 ) ;
#107 = PRODUCT_RELATED_PRODUCT_CATEGORY ( 'part', '', ( #68 ) ) ;
#108 = DIRECTION ( 'NONE',  ( 0.000000000000000000, 0.000000000000000000, 1.000000000000000000 ) ) ;
#109 = ORIENTED_EDGE ( 'NONE', *, *, #26, .T. ) ;
#110 = LINE ( 'NONE', #176, #33 ) ;
#111 = AXIS2_PLACEMENT_3D ( 'NONE', #255, #74, #67 ) ;
#112 = UNCERTAINTY_MEASURE_WITH_UNIT (LENGTH_MEASURE( 1.000000000000000082E-05 ), #233, 'distance_accuracy_value', 'NONE');
#113 = ORIENTED_EDGE ( 'NONE', *, *, #142, .F. ) ;
#114 = VERTEX_POINT ( 'NONE', #97 ) ;
#115 = DIRECTION ( 'NONE',  ( -0.000000000000000000, -0.000000000000000000, -1.000000000000000000 ) ) ;
#116 = VERTEX_POINT ( 'NONE', #64 ) ;
#117 = ORIENTED_EDGE ( 'NONE', *, *, #379, .F. ) ;
#118 = ORIENTED_EDGE ( 'NONE', *, *, #367, .T. ) ;
#119 = APPLICATION_CONTEXT ( 'automotive_design' ) ;
#120 = ADVANCED_FACE ( 'NONE', ( #315 ), #27, .T. ) ;
#121 = DIRECTION ( 'NONE',  ( 0.000000000000000000, 0.000000000000000000, 1.000000000000000000 ) ) ;
#122 = DIRECTION ( 'NONE',  ( 1.000000000000000000, 0.000000000000000000, 0.000000000000000000 ) ) ;
#123 = ORIENTED_EDGE ( 'NONE', *, *, #302, .T. ) ;
#124 = DIRECTION ( 'NONE',  ( 0.000000000000000000, 0.000000000000000000, 1.000000000000000000 ) ) ;
#125 = UNCERTAINTY_MEASURE_WITH_UNIT (LENGTH_MEASURE( 1.000000000000000082E-05 ), #277, 'distance_accuracy_value', 'NONE');
#126 = DIRECTION ( 'NONE',  ( 0.04783711430348518145, 0.9988551499066895545, -0.000000000000000000 ) ) ;
#127 =( GEOMETRIC_REPRESENTATION_CONTEXT ( 3 ) GLOBAL_UNCERTAINTY_ASSIGNED_CONTEXT ( ( #112 ) ) GLOBAL_UNIT_ASSIGNED_CONTEXT ( ( #233, #19, #141 ) ) REPRESENTATION_CONTEXT ( 'NONE', 'WORKASPACE' ) );
#128 = LINE ( 'NONE', #339, #329 ) ;
#129 = DIRECTION ( 'NONE',  ( -1.000000000000000000, 0.000000000000000000, 0.000000000000000000 ) ) ;
#130 = FACE_OUTER_BOUND ( 'NONE', #271, .T. ) ;
#131 = VECTOR ( 'NONE', #174, 1000.000000000000114 ) ;
#132 = AXIS2_PLACEMENT_3D ( 'NONE', #249, #98, #122 ) ;
#133 = DIRECTION ( 'NONE',  ( 0.000000000000000000, 0.000000000000000000, 1.000000000000000000 ) ) ;
#134 = FACE_OUTER_BOUND ( 'NONE', #88, .T. ) ;
#135 = DIRECTION ( 'NONE',  ( -0.000000000000000000, -0.000000000000000000, -1.000000000000000000 ) ) ;
#136 = VECTOR ( 'NONE', #148, 1000.000000000000000 ) ;
#137 = AXIS2_PLACEMENT_3D ( 'NONE', #301, #268, #144 ) ;
#138 = DIRECTION ( 'NONE',  ( 1.000000000000000000, 0.000000000000000000, 0.000000000000000000 ) ) ;
#139 = CARTESIAN_POINT ( 'NONE',  ( -3.367942863857717573, 1.991353990557976239, -99.99999999999998579 ) ) ;
#140 = VERTEX_POINT ( 'NONE', #319 ) ;
#141 =( NAMED_UNIT ( * ) SI_UNIT ( $, .STERADIAN. ) SOLID_ANGLE_UNIT ( ) );
#142 = EDGE_CURVE ( 'NONE', #116, #281, #21, .T. ) ;
#143 = ORIENTED_EDGE ( 'NONE', *, *, #204, .F. ) ;
#144 = DIRECTION ( 'NONE',  ( 1.000000000000000000, 0.000000000000000000, 0.000000000000000000 ) ) ;
#145 = AXIS2_PLACEMENT_3D ( 'NONE', #29, #343, #56 ) ;
#146 = ORIENTED_EDGE ( 'NONE', *, *, #270, .F. ) ;
#147 = ORIENTED_EDGE ( 'NONE', *, *, #223, .T. ) ;
#148 = DIRECTION ( 'NONE',  ( 0.000000000000000000, 0.000000000000000000, 1.000000000000000000 ) ) ;
#149 = ORIENTED_EDGE ( 'NONE', *, *, #270, .T. ) ;
#150 = ADVANCED_FACE ( 'NONE', ( #280 ), #34, .T. ) ;
#151 = DIRECTION ( 'NONE',  ( 0.000000000000000000, 0.000000000000000000, 1.000000000000000000 ) ) ;
#152 = VECTOR ( 'NONE', #133, 1000.000000000000000 ) ;
#153 = FACE_OUTER_BOUND ( 'NONE', #368, .T. ) ;
#154 = ORIENTED_EDGE ( 'NONE', *, *, #46, .T. ) ;
#155 = ADVANCED_FACE ( 'NONE', ( #153 ), #345, .T. ) ;
#156 = CARTESIAN_POINT ( 'NONE',  ( -3.400472101584089302, 1.312132488621428283, -99.99999999999998579 ) ) ;
#157 = DIRECTION ( 'NONE',  ( 0.000000000000000000, 0.000000000000000000, 1.000000000000000000 ) ) ;
#158 = VECTOR ( 'NONE', #370, 1000.000000000000114 ) ;
#159 = CARTESIAN_POINT ( 'NONE',  ( -3.367942863857717573, 1.991353990557976239, -99.99999999999998579 ) ) ;
#160 = CARTESIAN_POINT ( 'NONE',  ( 3.367942863857718461, 1.991353990557977127, -99.99999999999998579 ) ) ;
#161 = EDGE_CURVE ( 'NONE', #206, #331, #106, .T. ) ;
#162 = CARTESIAN_POINT ( 'NONE',  ( 3.367942863857718461, 1.991353990557977127, 0.000000000000000000 ) ) ;
#163 = AXIS2_PLACEMENT_3D ( 'NONE', #156, #126, #191 ) ;
#164 = ADVANCED_FACE ( 'NONE', ( #134 ), #229, .F. ) ;
#165 = DIRECTION ( 'NONE',  ( 0.000000000000000000, 0.000000000000000000, 1.000000000000000000 ) ) ;
#166 = ADVANCED_FACE ( 'NONE', ( #197 ), #325, .T. ) ;
#167 = PRODUCT_DEFINITION_SHAPE ( 'NONE', 'NONE',  #12 ) ;
#168 = DIRECTION ( 'NONE',  ( 0.000000000000000000, 0.000000000000000000, 1.000000000000000000 ) ) ;
#169 = EDGE_CURVE ( 'NONE', #281, #184, #380, .T. ) ;
#170 = CARTESIAN_POINT ( 'NONE',  ( -2.036946348712701930E-16, 1.563585518379533079, -99.99999999999998579 ) ) ;
#171 = COLOUR_RGB ( '',0.7921568627450980005, 0.8196078431372548767, 0.9333333333333333481 ) ;
#172 = AXIS2_PLACEMENT_3D ( 'NONE', #385, #108, #76 ) ;
#173 = DIRECTION ( 'NONE',  ( -1.000000000000000000, 0.000000000000000000, 0.000000000000000000 ) ) ;
#174 = DIRECTION ( 'NONE',  ( -0.9988551499066895545, 0.04783711430348518145, 0.000000000000000000 ) ) ;
#175 = EDGE_LOOP ( 'NONE', ( #240, #248, #146, #267, #117, #359, #396, #18, #113, #400 ) ) ;
#176 = CARTESIAN_POINT ( 'NONE',  ( 8.673617379884035472E-16, -2.621414481620468084, -99.99999999999998579 ) ) ;
#177 = EDGE_LOOP ( 'NONE', ( #211, #78, #23, #80 ) ) ;
#178 = DIRECTION ( 'NONE',  ( 0.000000000000000000, 0.000000000000000000, 1.000000000000000000 ) ) ;
#179 = CIRCLE ( 'NONE', #376, 0.6800000000000000488 ) ;
#180 = EDGE_LOOP ( 'NONE', ( #300, #334, #16, #308 ) ) ;
#181 = CARTESIAN_POINT ( 'NONE',  ( -3.962743041256712839, -3.166086482894162835, 0.000000000000000000 ) ) ;
#182 = EDGE_LOOP ( 'NONE', ( #20, #313, #386, #265 ) ) ;
#183 = EDGE_CURVE ( 'NONE', #234, #4, #179, .T. ) ;
#184 = VERTEX_POINT ( 'NONE', #38 ) ;
#185 = EDGE_LOOP ( 'NONE', ( #203, #25, #246, #390 ) ) ;
#186 = ORIENTED_EDGE ( 'NONE', *, *, #314, .T. ) ;
#187 = LINE ( 'NONE', #317, #225 ) ;
#188 = AXIS2_PLACEMENT_3D ( 'NONE', #159, #285, #129 ) ;
#189 = DIRECTION ( 'NONE',  ( 1.000000000000000000, 0.000000000000000000, 0.000000000000000000 ) ) ;
#190 = CARTESIAN_POINT ( 'NONE',  ( 3.750000000000000444, 1.078585518379534314, -99.99999999999998579 ) ) ;
#191 = DIRECTION ( 'NONE',  ( -0.9988551499066895545, 0.04783711430348518145, 0.000000000000000000 ) ) ;
#192 = CIRCLE ( 'NONE', #8, 0.2500000000000002220 ) ;
#193 = CARTESIAN_POINT ( 'NONE',  ( -3.962743041256712839, -3.166086482894162835, -99.99999999999998579 ) ) ;
#194 = EDGE_CURVE ( 'NONE', #4, #307, #230, .T. ) ;
#195 = SURFACE_SIDE_STYLE ('',( #7 ) ) ;
#196 = CARTESIAN_POINT ( 'NONE',  ( -3.738040721424127799, 1.328299305856206036, -99.99999999999998579 ) ) ;
#197 = FACE_OUTER_BOUND ( 'NONE', #357, .T. ) ;
#198 = DIRECTION ( 'NONE',  ( -1.000000000000000000, 0.000000000000000000, 0.000000000000000000 ) ) ;
#199 = DIRECTION ( 'NONE',  ( -0.000000000000000000, -0.000000000000000000, -1.000000000000000000 ) ) ;
#200 = CIRCLE ( 'NONE', #132, 4.000000000000000000 ) ;
#201 = CIRCLE ( 'NONE', #172, 0.2500000000000002220 ) ;
#202 = CARTESIAN_POINT ( 'NONE',  ( -3.400472101584089302, 1.312132488621428283, -99.99999999999998579 ) ) ;
#203 = ORIENTED_EDGE ( 'NONE', *, *, #367, .F. ) ;
#204 = EDGE_CURVE ( 'NONE', #140, #234, #71, .T. ) ;
#205 = CARTESIAN_POINT ( 'NONE',  ( 3.762514296544512860, 0.8288989300693168083, -99.99999999999998579 ) ) ;
#206 = VERTEX_POINT ( 'NONE', #382 ) ;
#207 = CARTESIAN_POINT ( 'NONE',  ( 3.962743041256714616, -3.166086482894161946, -99.99999999999998579 ) ) ;
#208 = ORIENTED_EDGE ( 'NONE', *, *, #63, .T. ) ;
#209 = CARTESIAN_POINT ( 'NONE',  ( 3.738040721424128687, 1.328299305856206480, -99.99999999999998579 ) ) ;
#210 = AXIS2_PLACEMENT_3D ( 'NONE', #61, #151, #189 ) ;
#211 = ORIENTED_EDGE ( 'NONE', *, *, #316, .F. ) ;
#212 =( NAMED_UNIT ( * ) SI_UNIT ( $, .STERADIAN. ) SOLID_ANGLE_UNIT ( ) );
#213 = ORIENTED_EDGE ( 'NONE', *, *, #327, .F. ) ;
#214 = VERTEX_POINT ( 'NONE', #346 ) ;
#215 = FACE_OUTER_BOUND ( 'NONE', #177, .T. ) ;
#216 = DIRECTION ( 'NONE',  ( 1.000000000000000000, 0.000000000000000000, 0.000000000000000000 ) ) ;
#217 = AXIS2_PLACEMENT_3D ( 'NONE', #91, #371, #216 ) ;
#218 = EDGE_CURVE ( 'NONE', #116, #114, #232, .T. ) ;
#219 = PRODUCT_CONTEXT ( 'NONE', #54, 'mechanical' ) ;
#220 = DIRECTION ( 'NONE',  ( -1.000000000000000000, 0.000000000000000000, 0.000000000000000000 ) ) ;
#221 = DIRECTION ( 'NONE',  ( 0.000000000000000000, 0.000000000000000000, 1.000000000000000000 ) ) ;
#222 = CARTESIAN_POINT ( 'NONE',  ( -2.036946348712701930E-16, 1.563585518379533079, -99.99999999999998579 ) ) ;
#223 = EDGE_CURVE ( 'NONE', #366, #237, #192, .T. ) ;
#224 = CARTESIAN_POINT ( 'NONE',  ( 3.750000000000000444, 1.078585518379534314, 0.000000000000000000 ) ) ;
#225 = VECTOR ( 'NONE', #121, 1000.000000000000000 ) ;
#226 = DIRECTION ( 'NONE',  ( -0.9988551499066895545, -0.04783711430348518145, -0.000000000000000000 ) ) ;
#227 = DIRECTION ( 'NONE',  ( 1.000000000000000000, 0.000000000000000000, 0.000000000000000000 ) ) ;
#228 = ADVANCED_FACE ( 'NONE', ( #130 ), #291, .F. ) ;
#229 = CYLINDRICAL_SURFACE ( 'NONE', #324, 0.6800000000000000488 ) ;
#230 = CIRCLE ( 'NONE', #77, 2.715000000000000746 ) ;
#231 = CARTESIAN_POINT ( 'NONE',  ( 3.750000000000000444, 1.078585518379534314, 0.000000000000000000 ) ) ;
#232 = LINE ( 'NONE', #196, #312 ) ;
#233 =( LENGTH_UNIT ( ) NAMED_UNIT ( * ) SI_UNIT ( .MILLI., .METRE. ) );
#234 = VERTEX_POINT ( 'NONE', #39 ) ;
#235 = VERTEX_POINT ( 'NONE', #258 ) ;
#236 = DIRECTION ( 'NONE',  ( -0.000000000000000000, -0.000000000000000000, -1.000000000000000000 ) ) ;
#237 = VERTEX_POINT ( 'NONE', #349 ) ;
#238 = ADVANCED_FACE ( 'NONE', ( #73 ), #351, .T. ) ;
#239 = LINE ( 'NONE', #205, #43 ) ;
#240 = ORIENTED_EDGE ( 'NONE', *, *, #342, .F. ) ;
#241 = VECTOR ( 'NONE', #252, 1000.000000000000000 ) ;
#242 = AXIS2_PLACEMENT_3D ( 'NONE', #392, #24, #352 ) ;
#243 = VERTEX_POINT ( 'NONE', #326 ) ;
#244 = ORIENTED_EDGE ( 'NONE', *, *, #183, .T. ) ;
#245 = ORIENTED_EDGE ( 'NONE', *, *, #391, .F. ) ;
#246 = ORIENTED_EDGE ( 'NONE', *, *, #381, .T. ) ;
#247 = ADVANCED_FACE ( 'NONE', ( #384 ), #40, .T. ) ;
#248 = ORIENTED_EDGE ( 'NONE', *, *, #70, .F. ) ;
#249 = CARTESIAN_POINT ( 'NONE',  ( 3.962743041256714616, -3.166086482894161946, -99.99999999999998579 ) ) ;
#250 = MECHANICAL_DESIGN_GEOMETRIC_PRESENTATION_REPRESENTATION (  '', ( #72 ), #127 ) ;
#251 = ORIENTED_EDGE ( 'NONE', *, *, #81, .T. ) ;
#252 = DIRECTION ( 'NONE',  ( 0.000000000000000000, 0.000000000000000000, 1.000000000000000000 ) ) ;
#253 = CYLINDRICAL_SURFACE ( 'NONE', #217, 0.6800000000000000488 ) ;
#254 = CARTESIAN_POINT ( 'NONE',  ( 2.693362260787541818, 1.905674296572309689, 0.000000000000000000 ) ) ;
#255 = CARTESIAN_POINT ( 'NONE',  ( 3.750000000000000444, 1.078585518379534314, -99.99999999999998579 ) ) ;
#256 = CARTESIAN_POINT ( 'NONE',  ( -3.400472101584089302, 1.312132488621428283, -99.99999999999998579 ) ) ;
#257 = ADVANCED_FACE ( 'NONE', ( #13 ), #262, .F. ) ;
#258 = CARTESIAN_POINT ( 'NONE',  ( 2.693362260787541818, 1.905674296572309689, -99.99999999999998579 ) ) ;
#259 = DIRECTION ( 'NONE',  ( 0.000000000000000000, 0.000000000000000000, 1.000000000000000000 ) ) ;
#260 = MANIFOLD_SOLID_BREP ( 'Boss-Extrude1', #92 ) ;
#261 = CIRCLE ( 'NONE', #320, 4.000000000000000000 ) ;
#262 = CYLINDRICAL_SURFACE ( 'NONE', #389, 4.000000000000000000 ) ;
#263 = EDGE_CURVE ( 'NONE', #243, #366, #239, .T. ) ;
#264 = CARTESIAN_POINT ( 'NONE',  ( 3.762514296544512860, 0.8288989300693168083, 0.000000000000000000 ) ) ;
#265 = ORIENTED_EDGE ( 'NONE', *, *, #263, .T. ) ;
#266 = DIRECTION ( 'NONE',  ( 1.000000000000000000, 0.000000000000000000, 0.000000000000000000 ) ) ;
#267 = ORIENTED_EDGE ( 'NONE', *, *, #46, .F. ) ;
#268 = DIRECTION ( 'NONE',  ( 0.000000000000000000, 0.000000000000000000, 1.000000000000000000 ) ) ;
#269 = EDGE_LOOP ( 'NONE', ( #83, #305, #149, #251 ) ) ;
#270 = EDGE_CURVE ( 'NONE', #95, #235, #350, .T. ) ;
#271 = EDGE_LOOP ( 'NONE', ( #6, #118, #52, #338, #55, #147, #208, #303, #244, #393 ) ) ;
#272 = CARTESIAN_POINT ( 'NONE',  ( -3.400472101584089302, 1.312132488621428283, 0.000000000000000000 ) ) ;
#273 = ORIENTED_EDGE ( 'NONE', *, *, #161, .T. ) ;
#274 = CIRCLE ( 'NONE', #100, 0.6800000000000000488 ) ;
#275 = CARTESIAN_POINT ( 'NONE',  ( 3.400472101584090190, 1.312132488621428950, -99.99999999999998579 ) ) ;
#276 = ORIENTED_EDGE ( 'NONE', *, *, #278, .F. ) ;
#277 =( LENGTH_UNIT ( ) NAMED_UNIT ( * ) SI_UNIT ( .MILLI., .METRE. ) );
#278 = EDGE_CURVE ( 'NONE', #184, #298, #397, .T. ) ;
#279 = DIRECTION ( 'NONE',  ( -0.9988551499066895545, -0.04783711430348518145, 0.000000000000000000 ) ) ;
#280 = FACE_OUTER_BOUND ( 'NONE', #175, .T. ) ;
#281 = VERTEX_POINT ( 'NONE', #306 ) ;
#282 = DIRECTION ( 'NONE',  ( 0.000000000000000000, 0.000000000000000000, 1.000000000000000000 ) ) ;
#283 = AXIS2_PLACEMENT_3D ( 'NONE', #181, #387, #304 ) ;
#284 = DIRECTION ( 'NONE',  ( 1.000000000000000000, 0.000000000000000000, 0.000000000000000000 ) ) ;
#285 = DIRECTION ( 'NONE',  ( -0.000000000000000000, 0.000000000000000000, -1.000000000000000000 ) ) ;
#286 = FILL_AREA_STYLE ('',( #377 ) ) ;
#287 = ADVANCED_BREP_SHAPE_REPRESENTATION ( '71214 White Filler Strip Small 7.9mm x 6.9mm', ( #260, #65 ), #57 ) ;
#288 = CARTESIAN_POINT ( 'NONE',  ( -2.036946348712701930E-16, 1.563585518379533079, 0.000000000000000000 ) ) ;
#289 = PRODUCT_DEFINITION_FORMATION_WITH_SPECIFIED_SOURCE ( 'ANY', '', #68, .NOT_KNOWN. ) ;
#290 = CIRCLE ( 'NONE', #296, 0.2500000000000002220 ) ;
#291 = PLANE ( 'NONE',  #355 ) ;
#292 = CARTESIAN_POINT ( 'NONE',  ( -3.762514296544511971, 0.8288989300693160311, -99.99999999999998579 ) ) ;
#293 = DIRECTION ( 'NONE',  ( 0.000000000000000000, 0.000000000000000000, 1.000000000000000000 ) ) ;
#294 = VECTOR ( 'NONE', #51, 1000.000000000000114 ) ;
#295 = ADVANCED_FACE ( 'NONE', ( #358 ), #42, .F. ) ;
#296 = AXIS2_PLACEMENT_3D ( 'NONE', #224, #309, #94 ) ;
#297 = CARTESIAN_POINT ( 'NONE',  ( -2.693362260787541818, 1.905674296572309023, 0.000000000000000000 ) ) ;
#298 = VERTEX_POINT ( 'NONE', #47 ) ;
#299 = LINE ( 'NONE', #93, #241 ) ;
#300 = ORIENTED_EDGE ( 'NONE', *, *, #194, .F. ) ;
#301 = CARTESIAN_POINT ( 'NONE',  ( -3.749999999999999556, 1.078585518379533426, 0.000000000000000000 ) ) ;
#302 = EDGE_CURVE ( 'NONE', #53, #298, #110, .T. ) ;
#303 = ORIENTED_EDGE ( 'NONE', *, *, #204, .T. ) ;
#304 = DIRECTION ( 'NONE',  ( -1.000000000000000000, 0.000000000000000000, 0.000000000000000000 ) ) ;
#305 = ORIENTED_EDGE ( 'NONE', *, *, #347, .F. ) ;
#306 = CARTESIAN_POINT ( 'NONE',  ( -3.762514296544511971, 0.8288989300693160311, -99.99999999999998579 ) ) ;
#307 = VERTEX_POINT ( 'NONE', #297 ) ;
#308 = ORIENTED_EDGE ( 'NONE', *, *, #391, .T. ) ;
#309 = DIRECTION ( 'NONE',  ( 0.000000000000000000, 0.000000000000000000, 1.000000000000000000 ) ) ;
#310 = ORIENTED_EDGE ( 'NONE', *, *, #223, .F. ) ;
#311 = LINE ( 'NONE', #60, #41 ) ;
#312 = VECTOR ( 'NONE', #165, 1000.000000000000000 ) ;
#313 = ORIENTED_EDGE ( 'NONE', *, *, #302, .F. ) ;
#314 = EDGE_CURVE ( 'NONE', #281, #53, #261, .T. ) ;
#315 = FACE_OUTER_BOUND ( 'NONE', #185, .T. ) ;
#316 = EDGE_CURVE ( 'NONE', #114, #184, #86, .T. ) ;
#317 = CARTESIAN_POINT ( 'NONE',  ( 2.693362260787541818, 1.905674296572309689, -99.99999999999998579 ) ) ;
#318 = APPLICATION_PROTOCOL_DEFINITION ( 'draft international standard', 'automotive_design', 1998, #119 ) ;
#319 = CARTESIAN_POINT ( 'NONE',  ( 3.738040721424128687, 1.328299305856206480, 0.000000000000000000 ) ) ;
#320 = AXIS2_PLACEMENT_3D ( 'NONE', #22, #332, #173 ) ;
#321 = DIRECTION ( 'NONE',  ( 0.000000000000000000, 0.000000000000000000, 1.000000000000000000 ) ) ;
#322 = SURFACE_STYLE_USAGE ( .BOTH. , #195 ) ;
#323 = CARTESIAN_POINT ( 'NONE',  ( 3.750000000000000444, 1.078585518379534314, -99.99999999999998579 ) ) ;
#324 = AXIS2_PLACEMENT_3D ( 'NONE', #378, #11, #36 ) ;
#325 = CYLINDRICAL_SURFACE ( 'NONE', #37, 0.2499999999999997780 ) ;
#326 = CARTESIAN_POINT ( 'NONE',  ( 3.762514296544512860, 0.8288989300693168083, -99.99999999999998579 ) ) ;
#327 = EDGE_CURVE ( 'NONE', #307, #331, #14, .T. ) ;
#328 = CIRCLE ( 'NONE', #374, 0.2500000000000002220 ) ;
#329 = VECTOR ( 'NONE', #340, 1000.000000000000000 ) ;
#330 = DIRECTION ( 'NONE',  ( 0.000000000000000000, 0.000000000000000000, 1.000000000000000000 ) ) ;
#331 = VERTEX_POINT ( 'NONE', #272 ) ;
#332 = DIRECTION ( 'NONE',  ( -0.000000000000000000, -0.000000000000000000, -1.000000000000000000 ) ) ;
#333 = ORIENTED_EDGE ( 'NONE', *, *, #26, .F. ) ;
#334 = ORIENTED_EDGE ( 'NONE', *, *, #81, .F. ) ;
#335 = AXIS2_PLACEMENT_3D ( 'NONE', #207, #178, #79 ) ;
#336 = LINE ( 'NONE', #395, #294 ) ;
#337 = ORIENTED_EDGE ( 'NONE', *, *, #263, .F. ) ;
#338 = ORIENTED_EDGE ( 'NONE', *, *, #278, .T. ) ;
#339 = CARTESIAN_POINT ( 'NONE',  ( 3.738040721424128687, 1.328299305856206480, -99.99999999999998579 ) ) ;
#340 = DIRECTION ( 'NONE',  ( 0.000000000000000000, 0.000000000000000000, 1.000000000000000000 ) ) ;
#341 = CYLINDRICAL_SURFACE ( 'NONE', #145, 0.2500000000000002220 ) ;
#342 = EDGE_CURVE ( 'NONE', #214, #206, #274, .T. ) ;
#343 = DIRECTION ( 'NONE',  ( 0.000000000000000000, 0.000000000000000000, 1.000000000000000000 ) ) ;
#344 = AXIS2_PLACEMENT_3D ( 'NONE', #170, #293, #138 ) ;
#345 = PLANE ( 'NONE',  #369 ) ;
#346 = CARTESIAN_POINT ( 'NONE',  ( -2.693362260787541818, 1.905674296572309023, -99.99999999999998579 ) ) ;
#347 = EDGE_CURVE ( 'NONE', #95, #234, #15, .T. ) ;
#348 = DIRECTION ( 'NONE',  ( -1.000000000000000000, 0.000000000000000000, 0.000000000000000000 ) ) ;
#349 = CARTESIAN_POINT ( 'NONE',  ( 4.000000000000000000, 1.078585518379534314, 0.000000000000000000 ) ) ;
#350 = CIRCLE ( 'NONE', #50, 0.6800000000000000488 ) ;
#351 = CYLINDRICAL_SURFACE ( 'NONE', #111, 0.2499999999999997780 ) ;
#352 = DIRECTION ( 'NONE',  ( -1.000000000000000000, 0.000000000000000000, 0.000000000000000000 ) ) ;
#353 = LINE ( 'NONE', #202, #131 ) ;
#354 = EDGE_LOOP ( 'NONE', ( #45, #49, #310, #337 ) ) ;
#355 = AXIS2_PLACEMENT_3D ( 'NONE', #10, #9, #69 ) ;
#356 = DIRECTION ( 'NONE',  ( 0.000000000000000000, 0.000000000000000000, 1.000000000000000000 ) ) ;
#357 = EDGE_LOOP ( 'NONE', ( #85, #1, #109, #388 ) ) ;
#358 = FACE_OUTER_BOUND ( 'NONE', #182, .T. ) ;
#359 = ORIENTED_EDGE ( 'NONE', *, *, #17, .F. ) ;
#360 = DIRECTION ( 'NONE',  ( -1.000000000000000000, 0.000000000000000000, 0.000000000000000000 ) ) ;
#361 = PRODUCT_DEFINITION_CONTEXT ( 'detailed design', #119, 'design' ) ;
#362 = VERTEX_POINT ( 'NONE', #209 ) ;
#363 = ORIENTED_EDGE ( 'NONE', *, *, #347, .T. ) ;
#364 = EDGE_LOOP ( 'NONE', ( #276, #3, #186, #123 ) ) ;
#365 = CARTESIAN_POINT ( 'NONE',  ( 3.400472101584090190, 1.312132488621428950, -99.99999999999998579 ) ) ;
#366 = VERTEX_POINT ( 'NONE', #264 ) ;
#367 = EDGE_CURVE ( 'NONE', #331, #114, #336, .T. ) ;
#368 = EDGE_LOOP ( 'NONE', ( #143, #333, #154, #363 ) ) ;
#369 = AXIS2_PLACEMENT_3D ( 'NONE', #275, #399, #279 ) ;
#370 = DIRECTION ( 'NONE',  ( -0.9988551499066895545, -0.04783711430348518145, -0.000000000000000000 ) ) ;
#371 = DIRECTION ( 'NONE',  ( 0.000000000000000000, 0.000000000000000000, 1.000000000000000000 ) ) ;
#372 = CARTESIAN_POINT ( 'NONE',  ( 8.673617379884035472E-16, -2.621414481620468084, -99.99999999999998579 ) ) ;
#373 = AXIS2_PLACEMENT_3D ( 'NONE', #75, #199, #44 ) ;
#374 = AXIS2_PLACEMENT_3D ( 'NONE', #190, #157, #30 ) ;
#375 = EDGE_CURVE ( 'NONE', #298, #366, #99, .T. ) ;
#376 = AXIS2_PLACEMENT_3D ( 'NONE', #162, #135, #227 ) ;
#377 = FILL_AREA_STYLE_COLOUR ( '', #171 ) ;
#378 = CARTESIAN_POINT ( 'NONE',  ( -3.367942863857717573, 1.991353990557976239, -99.99999999999998579 ) ) ;
#379 = EDGE_CURVE ( 'NONE', #48, #362, #201, .T. ) ;
#380 = LINE ( 'NONE', #292, #152 ) ;
#381 = EDGE_CURVE ( 'NONE', #206, #116, #353, .T. ) ;
#382 = CARTESIAN_POINT ( 'NONE',  ( -3.400472101584089302, 1.312132488621428283, -99.99999999999998579 ) ) ;
#383 = VECTOR ( 'NONE', #168, 1000.000000000000000 ) ;
#384 = FACE_OUTER_BOUND ( 'NONE', #180, .T. ) ;
#385 = CARTESIAN_POINT ( 'NONE',  ( 3.750000000000000444, 1.078585518379534314, -99.99999999999998579 ) ) ;
#386 = ORIENTED_EDGE ( 'NONE', *, *, #58, .T. ) ;
#387 = DIRECTION ( 'NONE',  ( -0.000000000000000000, -0.000000000000000000, -1.000000000000000000 ) ) ;
#388 = ORIENTED_EDGE ( 'NONE', *, *, #63, .F. ) ;
#389 = AXIS2_PLACEMENT_3D ( 'NONE', #193, #321, #35 ) ;
#390 = ORIENTED_EDGE ( 'NONE', *, *, #218, .T. ) ;
#391 = EDGE_CURVE ( 'NONE', #214, #307, #299, .T. ) ;
#392 = CARTESIAN_POINT ( 'NONE',  ( -3.367942863857717573, 1.991353990557976239, 0.000000000000000000 ) ) ;
#393 = ORIENTED_EDGE ( 'NONE', *, *, #194, .T. ) ;
#394 = EDGE_CURVE ( 'NONE', #48, #237, #311, .T. ) ;
#395 = CARTESIAN_POINT ( 'NONE',  ( -3.400472101584089302, 1.312132488621428283, 0.000000000000000000 ) ) ;
#396 = ORIENTED_EDGE ( 'NONE', *, *, #58, .F. ) ;
#397 = CIRCLE ( 'NONE', #283, 4.000000000000000000 ) ;
#398 = SHAPE_DEFINITION_REPRESENTATION ( #167, #287 ) ;
#399 = DIRECTION ( 'NONE',  ( -0.04783711430348518145, 0.9988551499066895545, 0.000000000000000000 ) ) ;
#400 = ORIENTED_EDGE ( 'NONE', *, *, #381, .F. ) ;
#401 = ORIENTED_EDGE ( 'NONE', *, *, #342, .T. ) ;
ENDSEC;
END-ISO-10303-21;
